  0
SECTION
  2
HEADER
  9
$ACADVER
  1
AC1018
  9
$ACADMAINTVER
 70
     0
  9
$DWGCODEPAGE
  3
ANSI_1252
  9
$INSBASE
 10
0.0
 20
0.0
 30
0.0
  9
$EXTMIN
 10
-0.5
 20
-0.5
 30
-0.5
  9
$EXTMAX
 10
5.0
 20
5.0
 30
5.0
  9
$LIMMIN
 10
-0.5
 20
-0.5
  9
$LIMMAX
 10
5.0
 20
5.0
  9
$ORTHOMODE
 70
     0
  9
$REGENMODE
 70
     1
  9
$FILLMODE
 70
     1
  9
$QTEXTMODE
 70
     0
  9
$MIRRTEXT
 70
     1
  9
$LTSCALE
 40
1.0
  9
$ATTMODE
 70
     1
  9
$TEXTSIZE
 40
0.2
  9
$TRACEWID
 40
0.05
  9
$TEXTSTYLE
  7
Standard
  9
$CLAYER
  8
0
  9
$CELTYPE
  6
ByLayer
  9
$CECOLOR
 62
   256
  9
$CELTSCALE
 40
1.0
  9
$DISPSILH
 70
     0
  9
$DIMSCALE
 40
1.0
  9
$DIMASZ
 40
0.18
  9
$DIMEXO
 40
0.0625
  9
$DIMDLI
 40
0.38
  9
$DIMRND
 40
0.0
  9
$DIMDLE
 40
0.0
  9
$DIMEXE
 40
0.18
  9
$DIMTP
 40
0.0
  9
$DIMTM
 40
0.0
  9
$DIMTXT
 40
0.18
  9
$DIMCEN
 40
0.09
  9
$DIMTSZ
 40
0.0
  9
$DIMTOL
 70
     0
  9
$DIMLIM
 70
     0
  9
$DIMTIH
 70
     1
  9
$DIMTOH
 70
     1
  9
$DIMSE1
 70
     0
  9
$DIMSE2
 70
     0
  9
$DIMTAD
 70
     0
  9
$DIMZIN
 70
     0
  9
$DIMBLK
  1

  9
$DIMASO
 70
     1
  9
$DIMSHO
 70
     1
  9
$DIMPOST
  1

  9
$DIMAPOST
  1

  9
$DIMALT
 70
     0
  9
$DIMALTD
 70
     2
  9
$DIMALTF
 40
25.4
  9
$DIMLFAC
 40
1.0
  9
$DIMTOFL
 70
     0
  9
$DIMTVP
 40
0.0
  9
$DIMTIX
 70
     0
  9
$DIMSOXD
 70
     0
  9
$DIMSAH
 70
     0
  9
$DIMBLK1
  1

  9
$DIMBLK2
  1

  9
$DIMSTYLE
  2
Standard
  9
$DIMCLRD
 70
     0
  9
$DIMCLRE
 70
     0
  9
$DIMCLRT
 70
     0
  9
$DIMTFAC
 40
1.0
  9
$DIMGAP
 40
0.09
  9
$DIMJUST
 70
     0
  9
$DIMSD1
 70
     0
  9
$DIMSD2
 70
     0
  9
$DIMTOLJ
 70
     1
  9
$DIMTZIN
 70
     0
  9
$DIMALTZ
 70
     0
  9
$DIMALTTZ
 70
     0
  9
$DIMUPT
 70
     0
  9
$DIMDEC
 70
     4
  9
$DIMTDEC
 70
     4
  9
$DIMALTU
 70
     2
  9
$DIMALTTD
 70
     2
  9
$DIMTXSTY
  7
Standard
  9
$DIMAUNIT
 70
     0
  9
$DIMADEC
 70
     0
  9
$DIMALTRND
 40
0.0
  9
$DIMAZIN
 70
     0
  9
$DIMDSEP
 70
    46
  9
$DIMATFIT
 70
     3
  9
$DIMFRAC
 70
     0
  9
$DIMLDRBLK
  1

  9
$DIMLUNIT
 70
     2
  9
$DIMLWD
 70
    -2
  9
$DIMLWE
 70
    -2
  9
$DIMTMOVE
 70
     0
  9
$LUNITS
 70
     2
  9
$LUPREC
 70
     4
  9
$SKETCHINC
 40
0.1
  9
$FILLETRAD
 40
0.5
  9
$AUNITS
 70
     0
  9
$AUPREC
 70
     0
  9
$MENU
  1
.
  9
$ELEVATION
 40
0.0
  9
$PELEVATION
 40
0.0
  9
$THICKNESS
 40
0.0
  9
$LIMCHECK
 70
     0
  9
$CHAMFERA
 40
0.0
  9
$CHAMFERB
 40
0.0
  9
$CHAMFERC
 40
0.0
  9
$CHAMFERD
 40
0.0
  9
$SKPOLY
 70
     0
  9
$TDCREATE
 40
2458075.513594757
  9
$TDUCREATE
 40
2458075.47192809
  9
$TDUPDATE
 40
2458075.51359522
  9
$TDUUPDATE
 40
2458075.471928553
  9
$TDINDWG
 40
0.0000000116
  9
$TDUSRTIMER
 40
0.0000000116
  9
$USRTIMER
 70
     1
  9
$ANGBASE
 50
0.0
  9
$ANGDIR
 70
     0
  9
$PDMODE
 70
     0
  9
$PDSIZE
 40
0.0
  9
$PLINEWID
 40
0.0
  9
$SPLFRAME
 70
     0
  9
$SPLINETYPE
 70
     6
  9
$SPLINESEGS
 70
     8
  9
$HANDSEED
  5
174
  9
$SURFTAB1
 70
     6
  9
$SURFTAB2
 70
     6
  9
$SURFTYPE
 70
     6
  9
$SURFU
 70
     6
  9
$SURFV
 70
     6
  9
$UCSBASE
  2

  9
$UCSNAME
  2

  9
$UCSORG
 10
0.0
 20
0.0
 30
0.0
  9
$UCSXDIR
 10
1.0
 20
0.0
 30
0.0
  9
$UCSYDIR
 10
0.0
 20
1.0
 30
0.0
  9
$UCSORTHOREF
  2

  9
$UCSORTHOVIEW
 70
     0
  9
$UCSORGTOP
 10
0.0
 20
0.0
 30
0.0
  9
$UCSORGBOTTOM
 10
0.0
 20
0.0
 30
0.0
  9
$UCSORGLEFT
 10
0.0
 20
0.0
 30
0.0
  9
$UCSORGRIGHT
 10
0.0
 20
0.0
 30
0.0
  9
$UCSORGFRONT
 10
0.0
 20
0.0
 30
0.0
  9
$UCSORGBACK
 10
0.0
 20
0.0
 30
0.0
  9
$PUCSBASE
  2

  9
$PUCSNAME
  2

  9
$PUCSORG
 10
0.0
 20
0.0
 30
0.0
  9
$PUCSXDIR
 10
1.0
 20
0.0
 30
0.0
  9
$PUCSYDIR
 10
0.0
 20
1.0
 30
0.0
  9
$PUCSORTHOREF
  2

  9
$PUCSORTHOVIEW
 70
     0
  9
$PUCSORGTOP
 10
0.0
 20
0.0
 30
0.0
  9
$PUCSORGBOTTOM
 10
0.0
 20
0.0
 30
0.0
  9
$PUCSORGLEFT
 10
0.0
 20
0.0
 30
0.0
  9
$PUCSORGRIGHT
 10
0.0
 20
0.0
 30
0.0
  9
$PUCSORGFRONT
 10
0.0
 20
0.0
 30
0.0
  9
$PUCSORGBACK
 10
0.0
 20
0.0
 30
0.0
  9
$USERI1
 70
     0
  9
$USERI2
 70
     0
  9
$USERI3
 70
     0
  9
$USERI4
 70
     0
  9
$USERI5
 70
     0
  9
$USERR1
 40
0.0
  9
$USERR2
 40
0.0
  9
$USERR3
 40
0.0
  9
$USERR4
 40
0.0
  9
$USERR5
 40
0.0
  9
$WORLDVIEW
 70
     1
  9
$SHADEDGE
 70
     3
  9
$SHADEDIF
 70
    70
  9
$TILEMODE
 70
     1
  9
$MAXACTVP
 70
    64
  9
$PINSBASE
 10
0.0
 20
0.0
 30
0.0
  9
$PLIMCHECK
 70
     0
  9
$PEXTMIN
 10
-0.5
 20
-0.5
 30
-0.5
  9
$PEXTMAX
 10
5.0
 20
5.0
 30
5.0
  9
$PLIMMIN
 10
-0.5
 20
-0.5
  9
$PLIMMAX
 10
5.0
 20
5.0
  9
$UNITMODE
 70
     0
  9
$VISRETAIN
 70
     1
  9
$PLINEGEN
 70
     0
  9
$PSLTSCALE
 70
     1
  9
$TREEDEPTH
 70
  3020
  9
$CMLSTYLE
  2
Standard
  9
$CMLJUST
 70
     0
  9
$CMLSCALE
 40
1.0
  9
$PROXYGRAPHICS
 70
     1
  9
$MEASUREMENT
 70
     1
  9
$CELWEIGHT
370
    18
  9
$ENDCAPS
280
     0
  9
$JOINSTYLE
280
     0
  9
$LWDISPLAY
290
     1
  9
$INSUNITS
 70
     4
  9
$HYPERLINKBASE
  1

  9
$STYLESHEET
  1

  9
$XEDIT
290
     1
  9
$CEPSNTYPE
380
     0
  9
$PSTYLEMODE
290
     1
  9
$FINGERPRINTGUID
  2
{68EFEE4D-3CA5-4058-B756-4A2A57282FBA}
  9
$VERSIONGUID
  2
{FAEB1C32-E019-11D5-929B-00C0DF256EC4}
  9
$EXTNAMES
290
     1
  9
$PSVPSCALE
 40
0.0
  9
$OLESTARTUP
290
     0
  9
$SORTENTS
280
   127
  9
$INDEXCTL
280
     0
  9
$HIDETEXT
280
     1
  9
$XCLIPFRAME
290
     0
  9
$HALOGAP
280
     0
  9
$OBSCOLOR
 70
   257
  9
$OBSLTYPE
280
     0
  9
$INTERSECTIONDISPLAY
280
     0
  9
$INTERSECTIONCOLOR
 70
   257
  9
$DIMASSOC
280
     2
  9
$PROJECTNAME
  1

  0
ENDSEC
  0
SECTION
  2
CLASSES
  0
CLASS
  1
ACDBDICTIONARYWDFLT
  2
AcDbDictionaryWithDefault
  3
ObjectDBX Classes
 90
        0
 91
        4
280
     0
281
     0
  0
CLASS
  1
VISUALSTYLE
  2
AcDbVisualStyle
  3
ObjectDBX Classes
 90
     4095
 91
        4
280
     0
281
     0
  0
CLASS
  1
MATERIAL
  2
AcDbMaterial
  3
ObjectDBX Classes
 90
     1153
 91
        4
280
     0
281
     0
  0
CLASS
  1
SCALE
  2
AcDbScale
  3
ObjectDBX Classes
 90
     1153
 91
        4
280
     0
281
     0
  0
CLASS
  1
TABLESTYLE
  2
AcDbTableStyle
  3
ObjectDBX Classes
 90
     4095
 91
        4
280
     0
281
     0
  0
CLASS
  1
MLEADERSTYLE
  2
AcDbMLeaderStyle
  3
ACDB_MLEADERSTYLE_CLASS
 90
     4095
 91
        4
280
     0
281
     0
  0
CLASS
  1
SUN
  2
AcDbSun
  3
SCENEOE
 90
     1153
 91
        4
280
     0
281
     0
  0
CLASS
  1
DICTIONARYVAR
  2
AcDbDictionaryVar
  3
ObjectDBX Classes
 90
        0
 91
        4
280
     0
281
     0
  0
CLASS
  1
CELLSTYLEMAP
  2
AcDbCellStyleMap
  3
ObjectDBX Classes
 90
     1152
 91
        4
280
     0
281
     0
  0
ENDSEC
  0
SECTION
  2
TABLES
  0
TABLE
  2
VPORT
  5
8
102
{ACAD_XDICTIONARY
360
12D
102
}
330
0
100
AcDbSymbolTable
 70
    16
  0
VPORT
  5
29
330
8
100
AcDbSymbolTableRecord
100
AcDbViewportTableRecord
  2
*Active
 70
     0
 10
0.0
 20
0.0
 11
1.0
 21
1.0
 12
183.33541
 22
155.825661
 13
0.0
 23
0.0
 14
0.5
 24
0.5
 15
0.5
 25
0.5
 16
0.0
 26
0.0
 36
1.0
 17
0.0
 27
0.0
 37
0.0
 40
254.0
 41
0.069908
 42
50.0
 43
501.701122
 44
-501.701122
 50
0.0
 51
0.0
 71
     0
 72
   100
 73
     1
 74
     3
 75
     0
 76
     0
 77
     0
 78
     0
281
     0
 65
     1
110
0.0
120
0.0
130
0.0
111
1.0
121
0.0
131
0.0
112
0.0
122
1.0
132
0.0
 79
     0
146
0.0
  0
VPORT
  5
11E
330
8
100
AcDbSymbolTableRecord
100
AcDbViewportTableRecord
  2
L1
 70
     0
 10
0.0
 20
0.0
 11
1.0
 21
1.0
 12
183.33541
 22
155.825661
 13
0.0
 23
0.0
 14
0.5
 24
0.5
 15
0.5
 25
0.5
 16
0.0
 26
0.0
 36
1.0
 17
0.0
 27
0.0
 37
0.0
 40
254.0
 41
0.069908
 42
50.0
 43
501.701122
 44
-501.701122
 50
0.0
 51
0.0
 71
     0
 72
   100
 73
     1
 74
     3
 75
     0
 76
     0
 77
     0
 78
     0
281
     0
 65
     1
110
0.0
120
0.0
130
0.0
111
1.0
121
0.0
131
0.0
112
0.0
122
1.0
132
0.0
 79
     0
146
0.0
  0
VPORT
  5
11F
330
8
100
AcDbSymbolTableRecord
100
AcDbViewportTableRecord
  2
L2
 70
     0
 10
0.0
 20
0.0
 11
0.5
 21
1.0
 12
0.0
 22
0.0
 13
0.0
 23
0.0
 14
0.5
 24
0.5
 15
0.5
 25
0.5
 16
0.0
 26
-1.0
 36
0.0
 17
0.0
 27
0.0
 37
0.0
 40
1500.38241
 41
0.011835
 42
50.0
 43
770.104354
 44
-770.104354
 50
0.0
 51
0.0
 71
     0
 72
   100
 73
     1
 74
     3
 75
     0
 76
     0
 77
     0
 78
     0
281
     0
 65
     1
110
0.0
120
0.0
130
0.0
111
1.0
121
0.0
131
0.0
112
0.0
122
1.0
132
0.0
 79
     0
146
0.0
  0
VPORT
  5
120
330
8
100
AcDbSymbolTableRecord
100
AcDbViewportTableRecord
  2
L2
 70
     0
 10
0.5
 20
0.0
 11
1.0
 21
1.0
 12
0.0
 22
0.0
 13
0.0
 23
0.0
 14
0.5
 24
0.5
 15
0.5
 25
0.5
 16
1.0
 26
0.0
 36
0.0
 17
0.0
 27
0.0
 37
0.0
 40
1500.38241
 41
0.011835
 42
50.0
 43
760.865195
 44
-760.865195
 50
0.0
 51
0.0
 71
     0
 72
   100
 73
     1
 74
     3
 75
     0
 76
     0
 77
     0
 78
     0
281
     0
 65
     1
110
0.0
120
0.0
130
0.0
111
1.0
121
0.0
131
0.0
112
0.0
122
1.0
132
0.0
 79
     0
146
0.0
  0
VPORT
  5
121
330
8
100
AcDbSymbolTableRecord
100
AcDbViewportTableRecord
  2
L3
 70
     0
 10
0.0
 20
0.5
 11
1.0
 21
1.0
 12
183.33541
 22
155.825661
 13
0.0
 23
0.0
 14
0.5
 24
0.5
 15
0.5
 25
0.5
 16
0.0
 26
0.0
 36
1.0
 17
0.0
 27
0.0
 37
0.0
 40
254.0
 41
0.069908
 42
50.0
 43
501.701122
 44
-501.701122
 50
0.0
 51
0.0
 71
     0
 72
   100
 73
     1
 74
     3
 75
     0
 76
     0
 77
     0
 78
     0
281
     0
 65
     1
110
0.0
120
0.0
130
0.0
111
1.0
121
0.0
131
0.0
112
0.0
122
1.0
132
0.0
 79
     0
146
0.0
  0
VPORT
  5
122
330
8
100
AcDbSymbolTableRecord
100
AcDbViewportTableRecord
  2
L3
 70
     0
 10
0.0
 20
0.0
 11
1.0
 21
0.5
 12
0.0
 22
0.0
 13
0.0
 23
0.0
 14
0.5
 24
0.5
 15
0.5
 25
0.5
 16
0.0
 26
-1.0
 36
0.0
 17
0.0
 27
0.0
 37
0.0
 40
1500.38241
 41
0.011835
 42
50.0
 43
770.104354
 44
-770.104354
 50
0.0
 51
0.0
 71
     0
 72
   100
 73
     1
 74
     3
 75
     0
 76
     0
 77
     0
 78
     0
281
     0
 65
     1
110
0.0
120
0.0
130
0.0
111
1.0
121
0.0
131
0.0
112
0.0
122
1.0
132
0.0
 79
     0
146
0.0
  0
VPORT
  5
123
330
8
100
AcDbSymbolTableRecord
100
AcDbViewportTableRecord
  2
L4
 70
     0
 10
0.0
 20
0.5
 11
0.5
 21
1.0
 12
183.33541
 22
155.825661
 13
0.0
 23
0.0
 14
0.5
 24
0.5
 15
0.5
 25
0.5
 16
0.0
 26
0.0
 36
1.0
 17
0.0
 27
0.0
 37
0.0
 40
254.0
 41
0.069908
 42
50.0
 43
501.701122
 44
-501.701122
 50
0.0
 51
0.0
 71
     0
 72
   100
 73
     1
 74
     3
 75
     0
 76
     0
 77
     0
 78
     0
281
     0
 65
     1
110
0.0
120
0.0
130
0.0
111
1.0
121
0.0
131
0.0
112
0.0
122
1.0
132
0.0
 79
     0
146
0.0
  0
VPORT
  5
124
330
8
100
AcDbSymbolTableRecord
100
AcDbViewportTableRecord
  2
L4
 70
     0
 10
0.0
 20
0.0
 11
0.5
 21
0.5
 12
0.0
 22
0.0
 13
0.0
 23
0.0
 14
0.5
 24
0.5
 15
0.5
 25
0.5
 16
0.0
 26
-1.0
 36
0.0
 17
0.0
 27
0.0
 37
0.0
 40
1500.38241
 41
0.011835
 42
50.0
 43
770.104354
 44
-770.104354
 50
0.0
 51
0.0
 71
     0
 72
   100
 73
     1
 74
     3
 75
     0
 76
     0
 77
     0
 78
     0
281
     0
 65
     1
110
0.0
120
0.0
130
0.0
111
1.0
121
0.0
131
0.0
112
0.0
122
1.0
132
0.0
 79
     0
146
0.0
  0
VPORT
  5
125
330
8
100
AcDbSymbolTableRecord
100
AcDbViewportTableRecord
  2
L4
 70
     0
 10
0.5
 20
0.0
 11
1.0
 21
0.5
 12
0.0
 22
0.0
 13
0.0
 23
0.0
 14
0.5
 24
0.5
 15
0.5
 25
0.5
 16
1.0
 26
0.0
 36
0.0
 17
0.0
 27
0.0
 37
0.0
 40
1500.38241
 41
0.011835
 42
50.0
 43
760.865195
 44
-760.865195
 50
0.0
 51
0.0
 71
     0
 72
   100
 73
     1
 74
     3
 75
     0
 76
     0
 77
     0
 78
     0
281
     0
 65
     1
110
0.0
120
0.0
130
0.0
111
1.0
121
0.0
131
0.0
112
0.0
122
1.0
132
0.0
 79
     0
146
0.0
  0
VPORT
  5
126
330
8
100
AcDbSymbolTableRecord
100
AcDbViewportTableRecord
  2
L4
 70
     0
 10
0.5
 20
0.5
 11
1.0
 21
1.0
 12
0.0
 22
0.0
 13
0.0
 23
0.0
 14
0.5
 24
0.5
 15
0.5
 25
0.5
 16
0.5773502691896258
 26
-0.5773502691896258
 36
0.5773502691896258
 17
0.0
 27
0.0
 37
0.0
 40
1470.817585
 41
0.012073
 42
50.0
 43
765.587847
 44
-765.587847
 50
0.0
 51
0.0
 71
     0
 72
   100
 73
     1
 74
     3
 75
     0
 76
     0
 77
     0
 78
     0
281
     0
 65
     1
110
0.0
120
0.0
130
0.0
111
1.0
121
0.0
131
0.0
112
0.0
122
1.0
132
0.0
 79
     0
146
0.0
  0
VPORT
  5
127
330
8
100
AcDbSymbolTableRecord
100
AcDbViewportTableRecord
  2
L6
 70
     0
 10
0.0
 20
0.5
 11
0.333333
 21
1.0
 12
0.0
 22
0.0
 13
0.0
 23
0.0
 14
0.5
 24
0.5
 15
0.5
 25
0.5
 16
0.7188730927569433
 26
-0.5850486126764433
 36
0.3754192287502549
 17
0.0
 27
0.0
 37
0.0
 40
1552.153934
 41
0.01144
 42
50.0
 43
803.552652
 44
-803.552652
 50
0.0
 51
0.0
 71
     0
 72
   100
 73
     1
 74
     3
 75
     0
 76
     0
 77
     0
 78
     0
281
     0
 65
     1
110
0.0
120
0.0
130
0.0
111
1.0
121
0.0
131
0.0
112
0.0
122
1.0
132
0.0
 79
     0
146
0.0
  0
VPORT
  5
128
330
8
100
AcDbSymbolTableRecord
100
AcDbViewportTableRecord
  2
L6
 70
     0
 10
0.0
 20
0.0
 11
0.333333
 21
0.5
 12
0.0
 22
0.0
 13
0.0
 23
0.0
 14
0.5
 24
0.5
 15
0.5
 25
0.5
 16
-1.0
 26
0.0
 36
0.0
 17
0.0
 27
0.0
 37
0.0
 40
1500.38241
 41
0.011835
 42
50.0
 43
760.865195
 44
-760.865195
 50
0.0
 51
0.0
 71
     0
 72
   100
 73
     1
 74
     3
 75
     0
 76
     0
 77
     0
 78
     0
281
     0
 65
     1
110
0.0
120
0.0
130
0.0
111
1.0
121
0.0
131
0.0
112
0.0
122
1.0
132
0.0
 79
     0
146
0.0
  0
VPORT
  5
129
330
8
100
AcDbSymbolTableRecord
100
AcDbViewportTableRecord
  2
L6
 70
     0
 10
0.333333
 20
0.5
 11
0.666667
 21
1.0
 12
183.33541
 22
155.825661
 13
0.0
 23
0.0
 14
0.5
 24
0.5
 15
0.5
 25
0.5
 16
0.0
 26
0.0
 36
1.0
 17
0.0
 27
0.0
 37
0.0
 40
254.0
 41
0.069908
 42
50.0
 43
501.701122
 44
-501.701122
 50
0.0
 51
0.0
 71
     0
 72
   100
 73
     1
 74
     3
 75
     0
 76
     0
 77
     0
 78
     0
281
     0
 65
     1
110
0.0
120
0.0
130
0.0
111
1.0
121
0.0
131
0.0
112
0.0
122
1.0
132
0.0
 79
     0
146
0.0
  0
VPORT
  5
12A
330
8
100
AcDbSymbolTableRecord
100
AcDbViewportTableRecord
  2
L6
 70
     0
 10
0.333333
 20
0.0
 11
0.666667
 21
0.5
 12
0.0
 22
0.0
 13
0.0
 23
0.0
 14
0.5
 24
0.5
 15
0.5
 25
0.5
 16
0.0
 26
-1.0
 36
0.0
 17
0.0
 27
0.0
 37
0.0
 40
1500.38241
 41
0.011835
 42
50.0
 43
770.104354
 44
-770.104354
 50
0.0
 51
0.0
 71
     0
 72
   100
 73
     1
 74
     3
 75
     0
 76
     0
 77
     0
 78
     0
281
     0
 65
     1
110
0.0
120
0.0
130
0.0
111
1.0
121
0.0
131
0.0
112
0.0
122
1.0
132
0.0
 79
     0
146
0.0
  0
VPORT
  5
12B
330
8
100
AcDbSymbolTableRecord
100
AcDbViewportTableRecord
  2
L6
 70
     0
 10
0.666667
 20
0.5
 11
1.0
 21
1.0
 12
0.0
 22
0.0
 13
0.0
 23
0.0
 14
0.5
 24
0.5
 15
0.5
 25
0.5
 16
0.5773502691896258
 26
-0.5773502691896258
 36
0.5773502691896258
 17
0.0
 27
0.0
 37
0.0
 40
1470.817585
 41
0.012073
 42
50.0
 43
765.587847
 44
-765.587847
 50
0.0
 51
0.0
 71
     0
 72
   100
 73
     1
 74
     3
 75
     0
 76
     0
 77
     0
 78
     0
281
     0
 65
     1
110
0.0
120
0.0
130
0.0
111
1.0
121
0.0
131
0.0
112
0.0
122
1.0
132
0.0
 79
     0
146
0.0
  0
VPORT
  5
12C
330
8
100
AcDbSymbolTableRecord
100
AcDbViewportTableRecord
  2
L6
 70
     0
 10
0.666667
 20
0.0
 11
1.0
 21
0.5
 12
0.0
 22
0.0
 13
0.0
 23
0.0
 14
0.5
 24
0.5
 15
0.5
 25
0.5
 16
1.0
 26
0.0
 36
0.0
 17
0.0
 27
0.0
 37
0.0
 40
1500.38241
 41
0.011835
 42
50.0
 43
760.865195
 44
-760.865195
 50
0.0
 51
0.0
 71
     0
 72
   100
 73
     1
 74
     3
 75
     0
 76
     0
 77
     0
 78
     0
281
     0
 65
     1
110
0.0
120
0.0
130
0.0
111
1.0
121
0.0
131
0.0
112
0.0
122
1.0
132
0.0
 79
     0
146
0.0
  0
ENDTAB
  0
TABLE
  2
LTYPE
  5
5
330
0
100
AcDbSymbolTable
 70
     6
  0
LTYPE
  5
14
330
5
100
AcDbSymbolTableRecord
100
AcDbLinetypeTableRecord
  2
ByBlock
 70
     0
  3

 72
    65
 73
     0
 40
0.0
  0
LTYPE
  5
15
330
5
100
AcDbSymbolTableRecord
100
AcDbLinetypeTableRecord
  2
ByLayer
 70
     0
  3

 72
    65
 73
     0
 40
0.0
  0
LTYPE
  5
16
330
5
100
AcDbSymbolTableRecord
100
AcDbLinetypeTableRecord
  2
Continuous
 70
     0
  3
Solid line
 72
    65
 73
     0
 40
0.0
  0
LTYPE
  5
6E
330
5
100
AcDbSymbolTableRecord
100
AcDbLinetypeTableRecord
  2
CENTER
 70
     0
  3
____ _ ____ _ ____ _ ____
 72
    65
 73
     4
 40
47.4
 49
22.0
 74
     4
 75
     0
340
0
 46
0.0
 50
0.0
 44
0.0
 45
0.0
 49
-8.5
 74
     4
 75
     0
340
0
 46
0.0
 50
0.0
 44
0.0
 45
0.0
 49
8.5
 74
     4
 75
     0
340
0
 46
0.0
 50
0.0
 44
0.0
 45
0.0
 49
-8.5
 74
     4
 75
     0
340
0
 46
0.0
 50
0.0
 44
0.0
 45
0.0
  0
LTYPE
  5
6F
330
5
100
AcDbSymbolTableRecord
100
AcDbLinetypeTableRecord
  2
DASHDOT
 70
     0
  3
_._._._._._._._._._._._._._._._.
 72
    65
 73
     4
 40
70.0
 49
31.0
 74
     4
 75
     0
340
0
 46
0.0
 50
0.0
 44
0.0
 45
0.0
 49
-13.0
 74
     4
 75
     0
340
0
 46
0.0
 50
0.0
 44
0.0
 45
0.0
 49
13.0
 74
     4
 75
     0
340
0
 46
0.0
 50
0.0
 44
0.0
 45
0.0
 49
-13.0
 74
     4
 75
     0
340
0
 46
0.0
 50
0.0
 44
0.0
 45
0.0
  0
LTYPE
  5
70
330
5
100
AcDbSymbolTableRecord
100
AcDbLinetypeTableRecord
  2
DASHED
 70
     0
  3
__ __ __ __ __ __ __ __ __
 72
    65
 73
     2
 40
25.72
 49
12.86
 74
     4
 75
     0
340
0
 46
0.0
 50
0.0
 44
0.0
 45
0.0
 49
-12.86
 74
     4
 75
     0
340
0
 46
0.0
 50
0.0
 44
0.0
 45
0.0
  0
LTYPE
  5
71
330
5
100
AcDbSymbolTableRecord
100
AcDbLinetypeTableRecord
  2
DOT
 70
     0
  3
.........................
 72
    65
 73
     2
 40
10.0
 49
0.0
 74
     4
 75
     0
340
0
 46
0.0
 50
0.0
 44
0.0
 45
0.0
 49
-10.0
 74
     4
 75
     0
340
0
 46
0.0
 50
0.0
 44
0.0
 45
0.0
  0
LTYPE
  5
72
330
5
100
AcDbSymbolTableRecord
100
AcDbLinetypeTableRecord
  2
PHANTOM
 70
     0
  3
____ _ _ ____ _ _ _____ _ _ ____
 72
    65
 73
     6
 40
50.5
 49
18.0
 74
     4
 75
     0
340
0
 46
0.0
 50
0.0
 44
0.0
 45
0.0
 49
-6.5
 74
     4
 75
     0
340
0
 46
0.0
 50
0.0
 44
0.0
 45
0.0
 49
6.5
 74
     4
 75
     0
340
0
 46
0.0
 50
0.0
 44
0.0
 45
0.0
 49
-6.5
 74
     4
 75
     0
340
0
 46
0.0
 50
0.0
 44
0.0
 45
0.0
 49
6.5
 74
     4
 75
     0
340
0
 46
0.0
 50
0.0
 44
0.0
 45
0.0
 49
-6.5
 74
     4
 75
     0
340
0
 46
0.0
 50
0.0
 44
0.0
 45
0.0
  0
ENDTAB
  0
TABLE
  2
LAYER
  5
2
330
0
100
AcDbSymbolTable
 70
     2
  0
LAYER
  5
10
330
2
100
AcDbSymbolTableRecord
100
AcDbLayerTableRecord
  2
0
 70
     0
 62
     7
  6
Continuous
370
    -3
390
F
  0
LAYER
  5
74
330
2
100
AcDbSymbolTableRecord
100
AcDbLayerTableRecord
  2
1
 70
     0
 62
     7
420
 16777215
  6
Continuous
370
    -3
390
F
  0
ENDTAB
  0
TABLE
  2
STYLE
  5
3
330
0
100
AcDbSymbolTable
 70
     1
  0
STYLE
  5
11
330
3
100
AcDbSymbolTableRecord
100
AcDbTextStyleTableRecord
  2
Standard
 70
     0
 40
0.0
 41
1.0
 50
0.0
 71
     0
 42
0.2
  3
txt
  4

  0
ENDTAB
  0
TABLE
  2
VIEW
  5
6
330
0
100
AcDbSymbolTable
 70
     0
  0
ENDTAB
  0
TABLE
  2
UCS
  5
7
330
0
100
AcDbSymbolTable
 70
     0
  0
ENDTAB
  0
TABLE
  2
APPID
  5
9
330
0
100
AcDbSymbolTable
 70
     2
  0
APPID
  5
12
330
9
100
AcDbSymbolTableRecord
100
AcDbRegAppTableRecord
  2
ACAD
 70
     0
  0
APPID
  5
16C
330
9
100
AcDbSymbolTableRecord
100
AcDbRegAppTableRecord
  2
ACAD_MLEADERVER
 70
     0
  0
ENDTAB
  0
TABLE
  2
DIMSTYLE
  5
A
330
0
100
AcDbSymbolTable
 70
     1
100
AcDbDimStyleTable
  0
DIMSTYLE
105
27
330
A
100
AcDbSymbolTableRecord
100
AcDbDimStyleTableRecord
  2
Standard
 70
     0
178
     0
340
11
  0
ENDTAB
  0
TABLE
  2
BLOCK_RECORD
  5
1
330
0
100
AcDbSymbolTable
 70
     1
  0
BLOCK_RECORD
  5
1F
330
1
100
AcDbSymbolTableRecord
100
AcDbBlockTableRecord
  2
*Model_Space
340
22
  0
BLOCK_RECORD
  5
1B
330
1
100
AcDbSymbolTableRecord
100
AcDbBlockTableRecord
  2
*Paper_Space
340
1E
  0
BLOCK_RECORD
  5
23
330
1
100
AcDbSymbolTableRecord
100
AcDbBlockTableRecord
  2
*Paper_Space0
340
26
  0
ENDTAB
  0
ENDSEC
  0
SECTION
  2
BLOCKS
  0
BLOCK
  5
20
330
1F
100
AcDbEntity
  8
0
100
AcDbBlockBegin
  2
*Model_Space
 70
     0
 10
0.0
 20
0.0
 30
0.0
  3
*Model_Space
  1

  0
ENDBLK
  5
21
330
1F
100
AcDbEntity
  8
0
100
AcDbBlockEnd
  0
BLOCK
  5
1C
330
1B
100
AcDbEntity
 67
     1
  8
0
100
AcDbBlockBegin
  2
*Paper_Space
 70
     0
 10
0.0
 20
0.0
 30
0.0
  3
*Paper_Space
  1

  0
ENDBLK
  5
1D
330
1B
100
AcDbEntity
 67
     1
  8
0
100
AcDbBlockEnd
  0
BLOCK
  5
24
330
23
100
AcDbEntity
  8
0
100
AcDbBlockBegin
  2
*Paper_Space0
 70
     0
 10
0.0
 20
0.0
 30
0.0
  3
*Paper_Space0
  1

  0
ENDBLK
  5
25
330
23
100
AcDbEntity
  8
0
100
AcDbBlockEnd
  0
ENDSEC
  0
SECTION
  2
ENTITIES
  0
LINE
  5
73
330
1F
100
AcDbEntity
  8
1
  6
Continuous
 62
     1
370
    13
100
AcDbLine
 10
115.718679
 20
199.988696
 30
0.0
 11
124.635196
 21
199.988696
 31
0.0
  0
LINE
  5
75
330
1F
100
AcDbEntity
  8
1
  6
Continuous
 62
     1
370
    13
100
AcDbLine
 10
115.718679
 20
198.004755
 30
0.0
 11
115.718679
 21
199.988696
 31
0.0
  0
LINE
  5
76
330
1F
100
AcDbEntity
  8
1
  6
Continuous
 62
     1
370
    13
100
AcDbLine
 10
124.635196
 20
198.004755
 30
0.0
 11
124.635196
 21
199.988696
 31
0.0
  0
LINE
  5
77
330
1F
100
AcDbEntity
  8
1
  6
Continuous
 62
     1
370
    18
100
AcDbLine
 10
110.06548
 20
198.004755
 30
0.0
 11
107.000607
 21
198.004755
 31
0.0
  0
LINE
  5
78
330
1F
100
AcDbEntity
  8
1
  6
Continuous
 62
     1
370
    18
100
AcDbLine
 10
100.176937
 20
198.004755
 30
0.0
 11
107.000607
 21
198.004755
 31
0.0
  0
LINE
  5
79
330
1F
100
AcDbEntity
  8
1
  6
Continuous
 62
     1
370
    18
100
AcDbLine
 10
140.176937
 20
198.004755
 30
0.0
 11
133.353267
 21
198.004755
 31
0.0
  0
LINE
  5
7A
330
1F
100
AcDbEntity
  8
1
  6
Continuous
 62
     1
370
    18
100
AcDbLine
 10
133.353267
 20
198.004755
 30
0.0
 11
130.288394
 21
198.004755
 31
0.0
  0
LINE
  5
7B
330
1F
100
AcDbEntity
  8
1
  6
Continuous
 62
     1
370
    13
100
AcDbLine
 10
136.176937
 20
202.247395
 30
0.0
 11
130.718001
 21
202.247395
 31
0.0
  0
LINE
  5
7C
330
1F
100
AcDbEntity
  8
1
  6
Continuous
 62
     1
370
    13
100
AcDbLine
 10
109.635873
 20
202.247395
 30
0.0
 11
104.176937
 21
202.247395
 31
0.0
  0
LINE
  5
7D
330
1F
100
AcDbEntity
  8
1
  6
Continuous
 62
     1
370
    18
100
AcDbLine
 10
104.176937
 20
202.599819
 30
0.0
 11
104.176937
 21
202.247395
 31
0.0
  0
LINE
  5
7E
330
1F
100
AcDbEntity
  8
1
  6
Continuous
 62
     1
370
    18
100
AcDbLine
 10
136.176937
 20
202.247395
 30
0.0
 11
136.176937
 21
202.503471
 31
0.0
  0
LINE
  5
7F
330
1F
100
AcDbEntity
  8
1
  6
Continuous
 62
     1
370
    18
100
AcDbLine
 10
140.176937
 20
184.404755
 30
0.0
 11
140.176937
 21
198.004755
 31
0.0
  0
LINE
  5
80
330
1F
100
AcDbEntity
  8
1
  6
Continuous
 62
     1
370
    18
100
AcDbLine
 10
130.176937
 20
127.404755
 30
0.0
 11
130.176937
 21
184.404755
 31
0.0
  0
LINE
  5
81
330
1F
100
AcDbEntity
  8
1
  6
Continuous
 62
     1
370
    18
100
AcDbLine
 10
110.176937
 20
184.404755
 30
0.0
 11
110.176937
 21
127.404755
 31
0.0
  0
LINE
  5
82
330
1F
100
AcDbEntity
  8
1
  6
Continuous
 62
     1
370
    18
100
AcDbLine
 10
128.176937
 20
125.404755
 30
0.0
 11
130.176937
 21
127.404755
 31
0.0
  0
LINE
  5
83
330
1F
100
AcDbEntity
  8
1
  6
Continuous
 62
     1
370
    18
100
AcDbLine
 10
110.176937
 20
127.404755
 30
0.0
 11
112.176937
 21
125.404755
 31
0.0
  0
LINE
  5
84
330
1F
100
AcDbEntity
  8
1
  6
Continuous
 62
     1
370
    18
100
AcDbLine
 10
110.06548
 20
198.004755
 30
0.0
 11
130.288394
 21
198.004755
 31
0.0
  0
LINE
  5
85
330
1F
100
AcDbEntity
  8
1
  6
Continuous
 62
     1
370
    18
100
AcDbLine
 10
100.176937
 20
184.404755
 30
0.0
 11
140.176937
 21
184.404755
 31
0.0
  0
LINE
  5
86
330
1F
100
AcDbEntity
  8
1
  6
Continuous
 62
     1
370
    18
100
AcDbLine
 10
110.176937
 20
127.404755
 30
0.0
 11
130.176937
 21
127.404755
 31
0.0
  0
LINE
  5
87
330
1F
100
AcDbEntity
  8
1
  6
Continuous
 62
     1
370
    18
100
AcDbLine
 10
100.176937
 20
198.004755
 30
0.0
 11
100.176937
 21
184.404755
 31
0.0
  0
LINE
  5
88
330
1F
100
AcDbEntity
  8
1
  6
Continuous
 62
     1
370
    18
100
AcDbLine
 10
112.176937
 20
125.404755
 30
0.0
 11
128.176937
 21
125.404755
 31
0.0
  0
LINE
  5
89
330
1F
100
AcDbEntity
  8
1
  6
Continuous
 62
     1
370
    18
100
AcDbLine
 10
280.172094
 20
203.604755
 30
0.0
 11
277.962489
 21
203.604755
 31
0.0
  0
LINE
  5
8A
330
1F
100
AcDbEntity
  8
1
  6
Continuous
 62
     1
370
    18
100
AcDbLine
 10
277.962489
 20
203.604755
 30
0.0
 11
247.870342
 21
203.604755
 31
0.0
  0
LINE
  5
8B
330
1F
100
AcDbEntity
  8
1
  6
Continuous
 62
     1
370
    18
100
AcDbLine
 10
245.660737
 20
203.604755
 30
0.0
 11
247.870342
 21
203.604755
 31
0.0
  0
LINE
  5
8C
330
1F
100
AcDbEntity
  8
1
  6
Continuous
 62
     1
370
    18
100
AcDbLine
 10
282.916415
 20
203.604755
 30
0.0
 11
280.172094
 21
203.604755
 31
0.0
  0
LINE
  5
8D
330
1F
100
AcDbEntity
  8
1
  6
Continuous
 62
     1
370
    18
100
AcDbLine
 10
254.916415
 20
131.004755
 30
0.0
 11
262.916415
 21
131.004755
 31
0.0
  0
LINE
  5
8E
330
1F
100
AcDbEntity
  8
1
  6
Continuous
 62
     1
370
    18
100
AcDbLine
 10
262.916415
 20
131.004755
 30
0.0
 11
270.916415
 21
131.004755
 31
0.0
  0
LINE
  5
8F
330
1F
100
AcDbEntity
  8
1
  6
Continuous
 62
     1
370
    18
100
AcDbLine
 10
272.916415
 20
133.004755
 30
0.0
 11
262.916415
 21
133.004755
 31
0.0
  0
LINE
  5
90
330
1F
100
AcDbEntity
  8
1
  6
Continuous
 62
     1
370
    18
100
AcDbLine
 10
262.916415
 20
133.004755
 30
0.0
 11
252.916415
 21
133.004755
 31
0.0
  0
LINE
  5
91
330
1F
100
AcDbEntity
  8
1
  6
Continuous
 62
     1
370
    13
100
AcDbLine
 10
254.687455
 20
212.756412
 30
0.0
 11
250.879556
 21
207.847395
 31
0.0
  0
LINE
  5
92
330
1F
100
AcDbEntity
  8
1
  6
Continuous
 62
     1
370
    13
100
AcDbLine
 10
274.953274
 20
207.847395
 30
0.0
 11
271.145375
 21
212.756412
 31
0.0
  0
LINE
  5
93
330
1F
100
AcDbEntity
  8
1
  6
Continuous
 62
     1
370
    18
100
AcDbLine
 10
272.031591
 20
214.528677
 30
0.0
 11
277.666032
 21
205.588696
 31
0.0
  0
LINE
  5
94
330
1F
100
AcDbEntity
  8
1
  6
Continuous
 62
     1
370
    13
100
AcDbLine
 10
250.879556
 20
207.847395
 30
0.0
 11
274.953274
 21
207.847395
 31
0.0
  0
LINE
  5
95
330
1F
100
AcDbEntity
  8
1
  6
Continuous
 62
     1
370
    18
100
AcDbLine
 10
245.660737
 20
203.604755
 30
0.0
 11
242.916415
 21
203.604755
 31
0.0
  0
LINE
  5
96
330
1F
100
AcDbEntity
  8
1
  6
Continuous
 62
     1
370
    18
100
AcDbLine
 10
282.916415
 20
190.004755
 30
0.0
 11
262.916415
 21
190.004755
 31
0.0
  0
LINE
  5
97
330
1F
100
AcDbEntity
  8
1
  6
Continuous
 62
     1
370
    18
100
AcDbLine
 10
262.916415
 20
190.004755
 30
0.0
 11
242.916415
 21
190.004755
 31
0.0
  0
LINE
  5
98
330
1F
100
AcDbEntity
  8
1
  6
Continuous
 62
     1
370
    18
100
AcDbLine
 10
254.416419
 20
216.728607
 30
0.0
 11
254.416441
 21
216.722444
 31
0.0
  0
LINE
  5
99
330
1F
100
AcDbEntity
  8
1
  6
Continuous
 62
     1
370
    18
100
AcDbLine
 10
254.416415
 20
216.721205
 30
0.0
 11
254.416415
 21
216.703108
 31
0.0
  0
LINE
  5
9A
330
1F
100
AcDbEntity
  8
1
  6
Continuous
 62
     1
370
    18
100
AcDbLine
 10
271.416415
 20
216.722652
 30
0.0
 11
271.416415
 21
271.504755
 31
0.0
  0
LINE
  5
9B
330
1F
100
AcDbEntity
  8
1
  6
Continuous
 62
     1
370
    18
100
AcDbLine
 10
282.916415
 20
190.004755
 30
0.0
 11
282.916415
 21
203.604755
 31
0.0
  0
LINE
  5
9C
330
1F
100
AcDbEntity
  8
1
  6
Continuous
 62
     1
370
    18
100
AcDbLine
 10
242.916415
 20
203.604755
 30
0.0
 11
242.916415
 21
190.004755
 31
0.0
  0
LINE
  5
9D
330
1F
100
AcDbEntity
  8
1
  6
Continuous
 62
     1
370
    18
100
AcDbLine
 10
272.916415
 20
133.004755
 30
0.0
 11
272.916415
 21
190.004755
 31
0.0
  0
LINE
  5
9E
330
1F
100
AcDbEntity
  8
1
  6
Continuous
 62
     1
370
    18
100
AcDbLine
 10
252.916415
 20
190.004755
 30
0.0
 11
252.916415
 21
133.004755
 31
0.0
  0
LINE
  5
9F
330
1F
100
AcDbEntity
  8
1
  6
Continuous
 62
     1
370
    18
100
AcDbLine
 10
270.916415
 20
131.004755
 30
0.0
 11
272.916415
 21
133.004755
 31
0.0
  0
LINE
  5
A0
330
1F
100
AcDbEntity
  8
1
  6
Continuous
 62
     1
370
    18
100
AcDbLine
 10
252.916415
 20
133.004755
 30
0.0
 11
254.916415
 21
131.004755
 31
0.0
  0
LINE
  5
A1
330
1F
100
AcDbEntity
  8
1
  6
Continuous
 62
     1
370
    18
100
AcDbLine
 10
254.416415
 20
271.504755
 30
0.0
 11
254.416415
 21
216.720941
 31
0.0
  0
LINE
  5
A2
330
1F
100
AcDbEntity
  8
1
  6
Continuous
 62
     1
370
    18
100
AcDbLine
 10
248.166798
 20
205.588696
 30
0.0
 11
253.80124
 21
214.528677
 31
0.0
  0
LINE
  5
A3
330
1F
100
AcDbEntity
  8
1
  6
Continuous
 62
     1
370
    13
100
AcDbLine
 10
115.718679
 20
33.301471
 30
0.0
 11
115.718679
 21
36.896951
 31
0.0
  0
LINE
  5
A4
330
1F
100
AcDbEntity
  8
1
  6
Continuous
 62
     1
370
    13
100
AcDbLine
 10
124.635196
 20
66.396185
 30
0.0
 11
124.635196
 21
69.991665
 31
0.0
  0
LINE
  5
A5
330
1F
100
AcDbEntity
  8
1
  6
Continuous
 62
     1
370
    13
100
AcDbLine
 10
124.635196
 20
33.301471
 30
0.0
 11
124.635196
 21
36.896951
 31
0.0
  0
LINE
  5
A6
330
1F
100
AcDbEntity
  8
1
  6
Continuous
 62
     1
370
    13
100
AcDbLine
 10
115.718679
 20
66.396185
 30
0.0
 11
115.718679
 21
69.991665
 31
0.0
  0
LINE
  5
A7
330
1F
100
AcDbEntity
  8
1
  6
Continuous
 62
     1
370
    13
100
AcDbLine
 10
128.654689
 20
65.082803
 30
0.0
 11
130.288394
 21
68.902246
 31
0.0
  0
LINE
  5
A8
330
1F
100
AcDbEntity
  8
1
  6
Continuous
 62
     1
370
    13
100
AcDbLine
 10
130.718001
 20
63.683427
 30
0.0
 11
133.353267
 21
66.692641
 31
0.0
  0
LINE
  5
A9
330
1F
100
AcDbEntity
  8
1
  6
Continuous
 62
     1
370
    13
100
AcDbLine
 10
130.718001
 20
39.609709
 30
0.0
 11
133.353267
 21
36.600494
 31
0.0
  0
LINE
  5
AA
330
1F
100
AcDbEntity
  8
1
  6
Continuous
 62
     1
370
    13
100
AcDbLine
 10
130.288394
 20
34.390889
 30
0.0
 11
128.654689
 21
38.210333
 31
0.0
  0
LINE
  5
AB
330
1F
100
AcDbEntity
  8
1
  6
Continuous
 62
     1
370
    13
100
AcDbLine
 10
110.06548
 20
34.390889
 30
0.0
 11
111.699185
 21
38.210333
 31
0.0
  0
LINE
  5
AC
330
1F
100
AcDbEntity
  8
1
  6
Continuous
 62
     1
370
    13
100
AcDbLine
 10
109.635873
 20
63.683427
 30
0.0
 11
107.000607
 21
66.692641
 31
0.0
  0
LINE
  5
AD
330
1F
100
AcDbEntity
  8
1
  6
Continuous
 62
     1
370
    13
100
AcDbLine
 10
115.718679
 20
36.896951
 30
0.0
 11
124.635196
 21
36.896951
 31
0.0
  0
LINE
  5
AE
330
1F
100
AcDbEntity
  8
1
  6
Continuous
 62
     1
370
    13
100
AcDbLine
 10
124.635196
 20
66.396185
 30
0.0
 11
115.718679
 21
66.396185
 31
0.0
  0
LINE
  5
AF
330
1F
100
AcDbEntity
  8
1
  6
Continuous
 62
     1
370
    13
100
AcDbLine
 10
115.718679
 20
69.991665
 30
0.0
 11
124.635196
 21
69.991665
 31
0.0
  0
LINE
  5
B0
330
1F
100
AcDbEntity
  8
1
  6
Continuous
 62
     1
370
    13
100
AcDbLine
 10
111.699185
 20
65.082803
 30
0.0
 11
110.06548
 21
68.902246
 31
0.0
  0
LINE
  5
B1
330
1F
100
AcDbEntity
  8
1
  6
Continuous
 62
     1
370
    13
100
AcDbLine
 10
109.635873
 20
39.609709
 30
0.0
 11
107.000607
 21
36.600494
 31
0.0
  0
LINE
  5
B2
330
1F
100
AcDbEntity
  8
1
  6
Continuous
 62
     1
370
    13
100
AcDbLine
 10
124.635196
 20
33.301471
 30
0.0
 11
115.718679
 21
33.301471
 31
0.0
  0
LINE
  5
B3
330
1F
100
AcDbEntity
  8
1
  6
Continuous
 62
     1
370
    18
100
AcDbLine
 10
148.260666
 20
60.146568
 30
0.0
 11
92.260666
 21
60.146568
 31
0.0
  0
LINE
  5
B4
330
1F
100
AcDbEntity
  8
1
  6
Continuous
 62
     1
370
    18
100
AcDbLine
 10
92.260666
 20
43.146568
 30
0.0
 11
148.260666
 21
43.146568
 31
0.0
  0
ARC
  5
B5
330
1F
100
AcDbEntity
  8
1
  6
Continuous
 62
     1
370
    18
100
AcDbCircle
 10
120.260666
 20
237.904755
 30
0.0
 40
36.49999999999999
100
AcDbArc
 50
299.655339
 51
0.0
  0
ARC
  5
B6
330
1F
100
AcDbEntity
  8
1
  6
Continuous
 62
     1
370
    18
100
AcDbCircle
 10
140.426937
 20
202.247395
 30
0.0
 40
4.25
100
AcDbArc
 50
180.0
 51
266.627713
  0
ARC
  5
B7
330
1F
100
AcDbEntity
  8
1
  6
Continuous
 62
     1
370
    18
100
AcDbCircle
 10
99.926937
 20
202.247395
 30
0.0
 40
4.25
100
AcDbArc
 50
273.372287
 51
0.0
  0
CIRCLE
  5
B8
330
1F
100
AcDbEntity
  8
1
  6
Continuous
 62
     1
370
    18
100
AcDbCircle
 10
120.260666
 20
237.904755
 30
0.0
 40
19.49999999999999
  0
ARC
  5
B9
330
1F
100
AcDbEntity
  8
1
  6
Continuous
 62
     1
370
    18
100
AcDbCircle
 10
120.260666
 20
237.904755
 30
0.0
 40
36.49999999999999
100
AcDbArc
 50
0.0
 51
240.074509
  0
ARC
  5
BA
330
1F
100
AcDbEntity
  8
1
  6
Continuous
 62
     1
370
    18
100
AcDbCircle
 10
244.571318
 20
207.854755
 30
0.0
 40
4.25
100
AcDbArc
 50
270.0
 51
327.778733
  0
ARC
  5
BB
330
1F
100
AcDbEntity
  8
1
  6
Continuous
 62
     1
370
    18
100
AcDbCircle
 10
281.261512
 20
207.854755
 30
0.0
 40
4.25
100
AcDbArc
 50
212.221267
 51
270.0
  0
ARC
  5
BC
330
1F
100
AcDbEntity
  8
1
  6
Continuous
 62
     1
370
    18
100
AcDbCircle
 10
262.916415
 20
271.504755
 30
0.0
 40
8.5
100
AcDbArc
 50
0.0
 51
180.0
  0
ARC
  5
BD
330
1F
100
AcDbEntity
  8
1
  6
Continuous
 62
     1
370
    18
100
AcDbCircle
 10
120.176937
 20
51.646568
 30
0.0
 40
20.0
100
AcDbArc
 50
239.630614
 51
300.369386
  0
ARC
  5
BE
330
1F
100
AcDbEntity
  8
1
  6
Continuous
 62
     1
370
    18
100
AcDbCircle
 10
120.176937
 20
51.646568
 30
0.0
 40
20.0
100
AcDbArc
 50
48.790326
 51
59.630614
  0
ARC
  5
BF
330
1F
100
AcDbEntity
  8
1
  6
Continuous
 62
     1
370
    18
100
AcDbCircle
 10
120.176937
 20
51.646568
 30
0.0
 40
20.0
100
AcDbArc
 50
311.209674
 51
334.85011
  0
ARC
  5
C0
330
1F
100
AcDbEntity
  8
1
  6
Continuous
 62
     1
370
    18
100
AcDbCircle
 10
120.176937
 20
51.646568
 30
0.0
 40
20.0
100
AcDbArc
 50
25.14989
 51
48.790326
  0
ARC
  5
C1
330
1F
100
AcDbEntity
  8
1
  6
Continuous
 62
     1
370
    18
100
AcDbCircle
 10
120.176937
 20
51.646568
 30
0.0
 40
20.0
100
AcDbArc
 50
300.369386
 51
311.209674
  0
ARC
  5
C2
330
1F
100
AcDbEntity
  8
1
  6
Continuous
 62
     1
370
    18
100
AcDbCircle
 10
120.176937
 20
51.646568
 30
0.0
 40
20.0
100
AcDbArc
 50
120.369386
 51
131.209674
  0
ARC
  5
C3
330
1F
100
AcDbEntity
  8
1
  6
Continuous
 62
     1
370
    18
100
AcDbCircle
 10
120.176937
 20
51.646568
 30
0.0
 40
20.0
100
AcDbArc
 50
228.790326
 51
239.630614
  0
ARC
  5
C4
330
1F
100
AcDbEntity
  8
1
  6
Continuous
 62
     1
370
    18
100
AcDbCircle
 10
120.176937
 20
51.646568
 30
0.0
 40
20.0
100
AcDbArc
 50
205.14989
 51
228.790326
  0
ARC
  5
C5
330
1F
100
AcDbEntity
  8
1
  6
Continuous
 62
     1
370
    18
100
AcDbCircle
 10
120.176937
 20
51.646568
 30
0.0
 40
20.0
100
AcDbArc
 50
131.209674
 51
154.85011
  0
ARC
  5
C6
330
1F
100
AcDbEntity
  8
1
  6
Continuous
 62
     1
370
    18
100
AcDbCircle
 10
120.176937
 20
51.646568
 30
0.0
 40
20.0
100
AcDbArc
 50
59.630614
 51
120.369386
  0
ARC
  5
C7
330
1F
100
AcDbEntity
  8
1
  6
Continuous
 62
     1
370
    18
100
AcDbCircle
 10
120.176937
 20
51.646568
 30
0.0
 40
15.99999999998973
100
AcDbArc
 50
32.090218
 51
48.790326
  0
ARC
  5
C8
330
1F
100
AcDbEntity
  8
1
  6
Continuous
 62
     1
370
    18
100
AcDbCircle
 10
120.176937
 20
51.646568
 30
0.0
 40
16.00000000009394
100
AcDbArc
 50
212.089974
 51
228.790326
  0
ARC
  5
C9
330
1F
100
AcDbEntity
  8
1
  6
Continuous
 62
     1
370
    13
100
AcDbCircle
 10
120.176937
 20
54.184554
 30
0.0
 40
13.00000000000215
100
AcDbArc
 50
30.416733
 51
69.943723
  0
ARC
  5
CA
330
1F
100
AcDbEntity
  8
1
  6
Continuous
 62
     1
370
    13
100
AcDbCircle
 10
120.176937
 20
49.108582
 30
0.0
 40
13.00000000000013
100
AcDbArc
 50
210.393614
 51
249.943723
  0
ARC
  5
CB
330
1F
100
AcDbEntity
  8
1
  6
Continuous
 62
     1
370
    13
100
AcDbCircle
 10
120.176937
 20
54.184554
 30
0.0
 40
12.99999999999997
100
AcDbArc
 50
110.056277
 51
149.606386
  0
ARC
  5
CC
330
1F
100
AcDbEntity
  8
1
  6
Continuous
 62
     1
370
    18
100
AcDbCircle
 10
120.176937
 20
51.646568
 30
0.0
 40
16.00000000004207
100
AcDbArc
 50
131.209674
 51
147.910026
  0
ARC
  5
CD
330
1F
100
AcDbEntity
  8
1
  6
Continuous
 62
     1
370
    13
100
AcDbCircle
 10
120.176937
 20
49.108582
 30
0.0
 40
12.99999999999785
100
AcDbArc
 50
290.056277
 51
329.583267
  0
ARC
  5
CE
330
1F
100
AcDbEntity
  8
1
  6
Continuous
 62
     1
370
    18
100
AcDbCircle
 10
120.176937
 20
51.646568
 30
0.0
 40
15.9999999999962
100
AcDbArc
 50
311.209674
 51
327.909782
  0
ARC
  5
CF
330
1F
100
AcDbEntity
  8
1
  6
Continuous
 62
     1
370
    18
100
AcDbCircle
 10
148.260666
 20
51.646568
 30
0.0
 40
8.5
100
AcDbArc
 50
270.0
 51
90.0
  0
ARC
  5
D0
330
1F
100
AcDbEntity
  8
1
  6
Continuous
 62
     1
370
    18
100
AcDbCircle
 10
92.260666
 20
51.646568
 30
0.0
 40
8.5
100
AcDbArc
 50
90.0
 51
270.0
  0
ELLIPSE
  5
D1
330
1F
100
AcDbEntity
  8
1
  6
Continuous
 62
     1
370
    13
100
AcDbEllipse
 10
133.517971
 20
202.247395
 30
0.0
 11
0.0
 21
4.25
 31
0.0
210
0.0
220
0.0
230
1.0
 40
0.658816
 41
1.570796326794897
 42
3.082735147642713
  0
ELLIPSE
  5
D2
330
1F
100
AcDbEntity
  8
1
  6
Continuous
 62
     1
370
    13
100
AcDbEllipse
 10
110.06548
 20
202.254755
 30
0.0
 11
0.0
 21
4.25
 31
0.0
210
0.0
220
0.0
230
1.0
 40
0.393268
 41
3.141592653589793
 42
4.49963003728783
  0
ELLIPSE
  5
D3
330
1F
100
AcDbEntity
  8
1
  6
Continuous
 62
     1
370
    13
100
AcDbEllipse
 10
130.288394
 20
202.254755
 30
0.0
 11
0.0
 21
4.25
 31
0.0
210
0.0
220
0.0
230
1.0
 40
0.393268
 41
1.783555269891756
 42
3.141592653589793
  0
ELLIPSE
  5
D4
330
1F
100
AcDbEntity
  8
1
  6
Continuous
 62
     1
370
    13
100
AcDbEllipse
 10
106.835903
 20
202.247395
 30
0.0
 11
0.0
 21
4.25
 31
0.0
210
0.0
220
0.0
230
1.0
 40
0.658816
 41
3.200450159536875
 42
4.71238898038469
  0
ELLIPSE
  5
D5
330
1F
100
AcDbEntity
  8
1
  6
Continuous
 62
     1
370
    13
100
AcDbEllipse
 10
102.810449
 20
207.156412
 30
0.0
 11
-3.852745420999486
 21
1.794116139208247
 31
0.0
210
0.0
220
0.0
230
1.0
 40
0.575612
 41
3.821799488249741
 42
4.666053125984742
  0
ELLIPSE
  5
D6
330
1F
100
AcDbEntity
  8
1
  6
Continuous
 62
     1
370
    13
100
AcDbEllipse
 10
108.963526
 20
211.194736
 30
0.0
 11
-0.1853219933298095
 21
-4.245957578543181
 31
0.0
210
0.0
220
0.0
230
1.0
 40
0.027472
 41
1.009028487924185
 42
1.644426240089742
  0
ELLIPSE
  5
D7
330
1F
100
AcDbEntity
  8
1
  6
Continuous
 62
     1
370
    13
100
AcDbEllipse
 10
131.387693
 20
211.187557
 30
0.0
 11
0.1730668624070949
 21
-4.246474756917387
 31
0.0
210
0.0
220
0.0
230
1.0
 40
0.025656
 41
4.643054985220544
 42
5.274233486925224
  0
ELLIPSE
  5
D8
330
1F
100
AcDbEntity
  8
1
  6
Continuous
 62
     1
370
    13
100
AcDbEllipse
 10
137.518891
 20
207.114851
 30
0.0
 11
-3.857998029023103
 21
-1.782793091767481
 31
0.0
210
0.0
220
0.0
230
1.0
 40
0.571126
 41
4.757002162853094
 42
5.6029150492131
  0
ELLIPSE
  5
D9
330
1F
100
AcDbEntity
  8
1
  6
Continuous
 62
     1
370
    13
100
AcDbEllipse
 10
120.176937
 20
219.364484
 30
0.0
 11
2.416321932012237E-14
 21
20.62666666666681
 31
0.0
210
0.0
220
0.0
230
1.0
 40
0.630252
 41
3.491640718979657
 42
4.181516835540752
  0
ELLIPSE
  5
DA
330
1F
100
AcDbEntity
  8
1
  6
Continuous
 62
     1
370
    13
100
AcDbEllipse
 10
120.176937
 20
217.764913
 30
0.0
 11
2.416321932010353E-14
 21
20.62666666665073
 31
0.0
210
0.0
220
0.0
230
1.0
 40
0.775695
 41
3.860837149128299
 42
4.16983500009721
  0
ELLIPSE
  5
DB
330
1F
100
AcDbEntity
  8
1
  6
Continuous
 62
     1
370
    13
100
AcDbEllipse
 10
120.176937
 20
217.764913
 30
0.0
 11
2.416321932017740E-14
 21
20.62666666671378
 31
0.0
210
0.0
220
0.0
230
1.0
 40
0.775695
 41
2.110999211667245
 42
2.422348158050577
  0
ELLIPSE
  5
DC
330
1F
100
AcDbEntity
  8
1
  6
Continuous
 62
     1
370
    13
100
AcDbEllipse
 10
120.176937
 20
219.364484
 30
0.0
 11
2.416321932012464E-14
 21
20.62666666666875
 31
0.0
210
0.0
220
0.0
230
1.0
 40
0.630252
 41
2.101264970960847
 42
2.791544588199755
  0
ELLIPSE
  5
DD
330
1F
100
AcDbEntity
  8
1
  6
Continuous
 62
     1
370
    13
100
AcDbEllipse
 10
280.172094
 20
207.854755
 30
0.0
 11
0.0
 21
4.25
 31
0.0
210
0.0
220
0.0
230
1.0
 40
0.919424
 41
1.783555269891757
 42
3.141592653589793
  0
ELLIPSE
  5
DE
330
1F
100
AcDbEntity
  8
1
  6
Continuous
 62
     1
370
    13
100
AcDbEllipse
 10
247.682266
 20
207.847395
 30
0.0
 11
0.0
 21
-4.25
 31
0.0
210
0.0
220
0.0
230
1.0
 40
0.752304
 41
0.0588575059470816
 42
1.570796326794897
  0
ELLIPSE
  5
DF
330
1F
100
AcDbEntity
  8
1
  6
Continuous
 62
     1
370
    13
100
AcDbEllipse
 10
245.660737
 20
207.854755
 30
0.0
 11
0.0
 21
-4.25
 31
0.0
210
0.0
220
0.0
230
1.0
 40
0.919424
 41
0.0
 42
1.358037383698037
  0
ELLIPSE
  5
E0
330
1F
100
AcDbEntity
  8
1
  6
Continuous
 62
     1
370
    13
100
AcDbEllipse
 10
250.20576
 20
216.794736
 30
0.0
 11
-3.59548009732973
 21
2.266058884871663
 31
0.0
210
0.0
220
0.0
230
1.0
 40
0.998672
 41
3.141592653589787
 42
3.776990405755341
  0
ELLIPSE
  5
E1
330
1F
100
AcDbEntity
  8
1
  6
Continuous
 62
     1
370
    13
100
AcDbEllipse
 10
275.627071
 20
216.794736
 30
0.0
 11
-3.595480097329724
 21
-2.266058884871673
 31
0.0
210
0.0
220
0.0
230
1.0
 40
0.998672
 41
5.647787555014028
 42
6.283185307179584
  0
ELLIPSE
  5
E2
330
1F
100
AcDbEntity
  8
1
  6
Continuous
 62
     1
370
    13
100
AcDbEllipse
 10
273.331193
 20
212.756412
 30
0.0
 11
-3.356822209766877
 21
2.60657719087999
 31
0.0
210
0.0
220
0.0
230
1.0
 40
0.345198
 41
0.3082259867476223
 42
1.152479624482624
  0
ELLIPSE
  5
E3
330
1F
100
AcDbEntity
  8
1
  6
Continuous
 62
     1
370
    13
100
AcDbEllipse
 10
252.501638
 20
212.756412
 30
0.0
 11
3.35682220976688
 21
2.606577190879987
 31
0.0
210
0.0
220
0.0
230
1.0
 40
0.345198
 41
5.130705682696965
 42
5.974959320431963
  0
ELLIPSE
  5
E4
330
1F
100
AcDbEntity
  8
1
  6
Continuous
 62
     1
370
    13
100
AcDbEllipse
 10
278.150565
 20
207.847395
 30
0.0
 11
0.0
 21
4.25
 31
0.0
210
0.0
220
0.0
230
1.0
 40
0.752304
 41
1.570796326794897
 42
3.082735147642711
  0
ELLIPSE
  5
E5
330
1F
100
AcDbEntity
  8
1
  6
Continuous
 62
     1
370
    18
100
AcDbEllipse
 10
250.166417
 20
216.73231
 30
0.0
 11
3.595480097329213
 21
-2.266058884872482
 31
0.0
210
0.0
220
0.0
230
1.0
 40
1.0
 41
0.0006831090954457
 42
0.566801448257768
  0
ELLIPSE
  5
E6
330
1F
100
AcDbEntity
  8
1
  6
Continuous
 62
     1
370
    18
100
AcDbEllipse
 10
275.666412
 20
216.732312
 30
0.0
 11
3.595480097330081
 21
2.266058884871105
 31
0.0
210
0.0
220
0.0
230
1.0
 40
1.0
 41
2.577687387767336
 42
3.14103845599376
  0
ELLIPSE
  5
E7
330
1F
100
AcDbEntity
  8
1
  6
Continuous
 62
     1
370
    13
100
AcDbEllipse
 10
108.963526
 20
64.357223
 30
0.0
 11
0.1168665673799645
 21
-4.248392896782126
 31
0.0
210
0.0
220
0.0
230
1.0
 40
0.043589
 41
5.720218412230795
 42
6.14858517208908
  0
ELLIPSE
  5
E8
330
1F
100
AcDbEntity
  8
1
  6
Continuous
 62
     1
370
    13
100
AcDbEllipse
 10
131.387693
 20
64.361747
 30
0.0
 11
-0.1091303086001445
 21
-4.248598660234318
 31
0.0
210
0.0
220
0.0
230
1.0
 40
0.040708
 41
0.1265687218294911
 42
0.5628901449374801
  0
ELLIPSE
  5
E9
330
1F
100
AcDbEntity
  8
1
  6
Continuous
 62
     1
370
    13
100
AcDbEllipse
 10
108.963526
 20
38.935913
 30
0.0
 11
-0.1168665673799658
 21
-4.248392896782127
 31
0.0
210
0.0
220
0.0
230
1.0
 40
0.043589
 41
3.276192788680262
 42
3.704559548538578
  0
ELLIPSE
  5
EA
330
1F
100
AcDbEntity
  8
1
  6
Continuous
 62
     1
370
    13
100
AcDbEllipse
 10
131.387693
 20
38.931388
 30
0.0
 11
0.1091303086001475
 21
-4.248598660234318
 31
0.0
210
0.0
220
0.0
230
1.0
 40
0.040708
 41
2.578702508652326
 42
3.015023931760338
  0
SPLINE
  5
EB
330
1F
100
AcDbEntity
  8
1
  6
Continuous
 62
     1
370
    13
100
AcDbSpline
210
0.0
220
0.0
230
1.0
 70
     8
 71
     3
 72
    14
 73
    10
 74
     0
 42
0.000000001
 43
0.0000000001
 40
0.0
 40
0.0
 40
0.0
 40
0.0
 40
0.4999999999999984
 40
0.4999999999999984
 40
0.6249999999999979
 40
0.6249999999999979
 40
0.7499999999999972
 40
0.7499999999999972
 40
1.0
 40
1.0
 40
1.0
 40
1.0
 10
128.6546894746557
 20
201.3573355674096
 30
0.0
 10
129.0254633119722
 20
201.503487144914
 30
0.0
 10
129.3840096281268
 20
201.6498803475026
 30
0.0
 10
129.8149689638961
 20
201.8349163593604
 30
0.0
 10
129.9002991356047
 20
201.8720269440537
 30
0.0
 10
130.0691843450359
 20
201.9465000528087
 30
0.0
 10
130.1527812880386
 20
201.9838817194951
 30
0.0
 10
130.4005100010419
 20
202.0963249374163
 30
0.0
 10
130.5614527895779
 20
202.171626241223
 30
0.0
 10
130.7180009055228
 20
202.2473953519615
 30
0.0
  0
SPLINE
  5
EC
330
1F
100
AcDbEntity
  8
1
  6
Continuous
 62
     1
370
    13
100
AcDbSpline
210
0.0
220
0.0
230
1.0
 70
     8
 71
     3
 72
    18
 73
    14
 74
     0
 42
0.000000001
 43
0.0000000001
 40
0.0
 40
0.0
 40
0.0
 40
0.0
 40
0.2500000000000001
 40
0.2500000000000001
 40
0.5000000000000007
 40
0.5000000000000007
 40
0.7500000000000012
 40
0.7500000000000012
 40
0.812500000000001
 40
0.812500000000001
 40
0.8750000000000009
 40
0.8750000000000009
 40
1.0
 40
1.0
 40
1.0
 40
1.0
 10
111.6991846161019
 20
201.3573355674096
 30
0.0
 10
112.0118552291088
 20
201.23408711045
 30
0.0
 10
112.3307639771977
 20
201.1128366539584
 30
0.0
 10
112.9800016704365
 20
200.8742690933275
 30
0.0
 10
113.3103336909315
 20
200.7569434651045
 30
0.0
 10
113.9817090000738
 20
200.5269066673478
 30
0.0
 10
114.3227501907145
 20
200.4141786497793
 30
0.0
 10
114.7554981496602
 20
200.2772792362547
 30
0.0
 10
114.8423479916493
 20
200.2501109920176
 30
0.0
 10
115.016423136647
 20
200.1963083670466
 30
0.0
 10
115.1036800532805
 20
200.1696639194892
 30
0.0
 10
115.3661112536625
 20
200.09057087532
 30
0.0
 10
115.5419445951827
 20
200.0389582616705
 30
0.0
 10
115.7186785865019
 20
199.9886957799705
 30
0.0
  0
SPLINE
  5
ED
330
1F
100
AcDbEntity
  8
1
  6
Continuous
 62
     1
370
    13
100
AcDbSpline
210
0.0
220
0.0
230
1.0
 70
     8
 71
     3
 72
    18
 73
    14
 74
     0
 42
0.000000001
 43
0.0000000001
 40
0.0
 40
0.0
 40
0.0
 40
0.0
 40
0.25
 40
0.25
 40
0.5
 40
0.5
 40
0.75
 40
0.75
 40
0.8750000000000002
 40
0.8750000000000002
 40
0.9375000000000001
 40
0.9375000000000001
 40
1.0
 40
1.0
 40
1.0
 40
1.0
 10
124.6351955042538
 20
199.9886957799694
 30
0.0
 10
124.9889629705474
 20
200.0893059153933
 30
0.0
 10
125.3381491143992
 20
200.1949766472255
 30
0.0
 10
126.0274792991557
 20
200.4130058802758
 30
0.0
 10
126.3676140845505
 20
200.5253876898328
 30
0.0
 10
127.0384442482665
 20
200.7551575632584
 30
0.0
 10
127.3691377790869
 20
200.8725610652643
 30
0.0
 10
127.8575575225531
 20
201.051987431244
 30
0.0
 10
128.0190915726312
 20
201.1123569647693
 30
0.0
 10
128.2593923429103
 20
201.2037521754316
 30
0.0
 10
128.3391532339145
 20
201.234355938516
 30
0.0
 10
128.4976374563894
 20
201.2957101870727
 30
0.0
 10
128.576405006489
 20
201.3264774070825
 30
0.0
 10
128.6546894746565
 20
201.357335567409
 30
0.0
  0
SPLINE
  5
EE
330
1F
100
AcDbEntity
  8
1
  6
Continuous
 62
     1
370
    13
100
AcDbSpline
210
0.0
220
0.0
230
1.0
 70
     8
 71
     3
 72
    39
 73
    35
 74
     0
 42
0.000000001
 43
0.0000000001
 40
0.0
 40
0.0
 40
0.0
 40
0.0
 40
0.0306572059967227
 40
0.0306572059967227
 40
0.0462917671903239
 40
0.0462917671903239
 40
0.0619263283839252
 40
0.1244645731583295
 40
0.187002817932734
 40
0.2495410627071385
 40
0.3120793074815432
 40
0.3120793074815432
 40
0.3433484298687452
 40
0.3589829910623465
 40
0.3589829910623465
 40
0.3746175522559477
 40
0.3746175522559477
 40
0.4371557970303524
 40
0.4371557970303524
 40
0.4996940418047573
 40
0.4996940418047573
 40
0.6247705313535663
 40
0.6247705313535663
 40
0.687308776127971
 40
0.687308776127971
 40
0.7029433373215722
 40
0.7029433373215722
 40
0.7185778985151733
 40
0.7185778985151733
 40
0.7498470209023755
 40
0.7498470209023755
 40
0.8749235104511879
 40
0.8749235104511879
 40
1.0
 40
1.0
 40
1.0
 40
1.0
 10
136.1769369238104
 20
202.4945301550355
 30
0.0
 10
136.1769498698891
 20
202.4945095247614
 30
0.0
 10
136.1759315056737
 20
202.4961308699618
 30
0.0
 10
136.1728071281716
 20
202.5011084313367
 30
0.0
 10
136.1714810149885
 20
202.5032214611478
 30
0.0
 10
136.1682975102406
 20
202.5082960456672
 30
0.0
 10
136.1590070616641
 20
202.5231106777659
 30
0.0
 10
136.1304589707769
 20
202.568694585822
 30
0.0
 10
136.0683053616636
 20
202.6686491544964
 30
0.0
 10
135.9830437723714
 20
202.8072389951863
 30
0.0
 10
135.9113743315378
 20
202.9254187211873
 30
0.0
 10
135.8522581998349
 20
203.0238780502775
 30
0.0
 10
135.821358856837
 20
203.0755660935274
 30
0.0
 10
135.7884826293734
 20
203.1309915442853
 30
0.0
 10
135.7661296430961
 20
203.1687794139022
 30
0.0
 10
135.7547300572479
 20
203.1881012890834
 30
0.0
 10
135.6969172531928
 20
203.2863724344315
 30
0.0
 10
135.647870824489
 20
203.3706218239212
 30
0.0
 10
135.5448734106288
 20
203.5500229028131
 30
0.0
 10
135.4909215796492
 20
203.6451755675673
 30
0.0
 10
135.3226613791145
 20
203.9467061211024
 30
0.0
 10
135.2019509172272
 20
204.169089571439
 30
0.0
 10
135.0116930341788
 20
204.5348936383661
 30
0.0
 10
134.9467401171502
 20
204.6622170219
 30
0.0
 10
134.8640106092705
 20
204.8282526950641
 30
0.0
 10
134.8473878305923
 20
204.8618042286572
 30
0.0
 10
134.8139981825285
 20
204.9296010486223
 30
0.0
 10
134.7972172357398
 20
204.9638753720198
 30
0.0
 10
134.7467962519721
 20
205.0674930945356
 30
0.0
 10
134.7130831572236
 20
205.1376189619086
 30
0.0
 10
134.5442363978204
 20
205.4934379571801
 30
0.0
 10
134.4082680915554
 20
205.7946459609182
 30
0.0
 10
134.1398297133125
 20
206.4298862356758
 30
0.0
 10
134.0073503648865
 20
206.7639279784893
 30
0.0
 10
133.879221721657
 20
207.1148513806603
 30
0.0
  0
SPLINE
  5
EF
330
1F
100
AcDbEntity
  8
1
  6
Continuous
 62
     1
370
    13
100
AcDbSpline
210
0.0
220
0.0
230
1.0
 70
     8
 71
     3
 72
    35
 73
    31
 74
     0
 42
0.000000001
 43
0.0000000001
 40
0.0
 40
0.0
 40
0.0
 40
0.0
 40
0.1249224775949855
 40
0.1249224775949855
 40
0.2498449551899709
 40
0.2498449551899709
 40
0.3123061939874637
 40
0.3123061939874637
 40
0.3435368133862101
 40
0.3591521230855832
 40
0.3591521230855832
 40
0.3747674327849564
 40
0.3747674327849564
 40
0.4996899103799418
 40
0.4996899103799418
 40
0.6246123879749272
 40
0.6246123879749272
 40
0.6870736267724199
 40
0.6870736267724199
 40
0.7026889364717932
 40
0.7026889364717932
 40
0.7183042461711664
 40
0.7495348655699129
 40
0.7495348655699129
 40
0.8744573431648983
 40
0.8744573431648983
 40
0.936918581962391
 40
0.9993798207598836
 40
0.9993798207598836
 40
1.0
 40
1.0
 40
1.0
 40
1.0
 10
106.4552673926269
 20
207.1564117696414
 30
0.0
 10
106.3275040806737
 20
206.8091707952792
 30
0.0
 10
106.1958715872501
 20
206.479444972405
 30
0.0
 10
105.9300474255622
 20
205.8536995299897
 30
0.0
 10
105.7958467755047
 20
205.5576729698405
 30
0.0
 10
105.5964565836523
 20
205.1388166331891
 30
0.0
 10
105.530311986608
 20
205.0034050759589
 30
0.0
 10
105.4320699238587
 20
204.8066904639993
 30
0.0
 10
105.3831928768523
 20
204.7099350134379
 30
0.0
 10
105.334778272509
 20
204.6156111565537
 30
0.0
 10
105.3026156580828
 20
204.5532730265476
 30
0.0
 10
105.2866064107389
 20
204.5224058321852
 30
0.0
 10
105.1436067911255
 20
204.2480607807373
 30
0.0
 10
105.0233846633134
 20
204.0271091220926
 30
0.0
 10
104.8010848530531
 20
203.6295038194501
 30
0.0
 10
104.6989884137426
 20
203.4528429242471
 30
0.0
 10
104.5628440838643
 20
203.2217127506328
 30
0.0
 10
104.5202991665544
 20
203.1503319115335
 30
0.0
 10
104.4710624241619
 20
203.06841466721
 30
0.0
 10
104.4614063825711
 20
203.0523870843174
 30
0.0
 10
104.4425264762415
 20
203.0211158337334
 30
0.0
 10
104.414912423642
 20
202.975480116475
 30
0.0
 10
104.3894245940524
 20
202.9336228913016
 30
0.0
 10
104.3092322052372
 20
202.8023712344564
 30
0.0
 10
104.2603145795166
 20
202.7237196554781
 30
0.0
 10
104.210798253922
 20
202.6443869517226
 30
0.0
 10
104.1857481873863
 20
202.6044288202752
 30
0.0
 10
104.177059784264
 20
202.5906190362042
 30
0.0
 10
104.1769383785877
 20
202.5904259071446
 30
0.0
 10
104.1769378463248
 20
202.5904250604474
 30
0.0
 10
104.1769373142572
 20
202.5904242136274
 30
0.0
  0
SPLINE
  5
F0
330
1F
100
AcDbEntity
  8
1
  6
Continuous
 62
     1
370
    13
100
AcDbSpline
210
0.0
220
0.0
230
1.0
 70
     8
 71
     3
 72
    32
 73
    28
 74
     0
 42
0.000000001
 43
0.0000000001
 40
0.0
 40
0.0
 40
0.0
 40
0.0
 40
0.0004288502416556
 40
0.0004288502416556
 40
0.1253752439614501
 40
0.1253752439614501
 40
0.2503216376812447
 40
0.2503216376812447
 40
0.3127948345411419
 40
0.3127948345411419
 40
0.3752680314010391
 40
0.3752680314010391
 40
0.5002144251208334
 40
0.5002144251208334
 40
0.6251608188406278
 40
0.6251608188406278
 40
0.6563974172705757
 40
0.6563974172705757
 40
0.6876340157005234
 40
0.6876340157005234
 40
0.7501072125604191
 40
0.7501072125604191
 40
0.87505360628021
 40
0.87505360628021
 40
0.937526803140105
 40
0.937526803140105
 40
1.0
 40
1.0
 40
1.0
 40
1.0
 10
102.0476327126871
 20
206.2735135162599
 30
0.0
 10
102.0476333737435
 20
206.2735142667294
 30
0.0
 10
102.0476340348783
 20
206.2735150171298
 30
0.0
 10
102.047805609933
 20
206.2737097474483
 30
0.0
 10
102.0617165556573
 20
206.2894387174965
 30
0.0
 10
102.1158707657093
 20
206.3513896394075
 30
0.0
 10
102.156119152148
 20
206.3976102025454
 30
0.0
 10
102.2356109609236
 20
206.49075017831
 30
0.0
 10
102.2652966401496
 20
206.5257792822792
 30
0.0
 10
102.3309529846771
 20
206.6041484413923
 30
0.0
 10
102.3665914993217
 20
206.6470938789083
 30
0.0
 10
102.4812579062818
 20
206.7871821630077
 30
0.0
 10
102.5680481139453
 20
206.8955270442609
 30
0.0
 10
102.7588857522854
 20
207.1434974044614
 30
0.0
 10
102.8629526626656
 20
207.2831077308123
 30
0.0
 10
103.0014904375374
 20
207.4793298924547
 30
0.0
 10
103.0296225620953
 20
207.5196708574518
 30
0.0
 10
103.0866474383586
 20
207.6025948803867
 30
0.0
 10
103.1153996333689
 20
207.6449737935668
 30
0.0
 10
103.2022378495452
 20
207.7748953108562
 30
0.0
 10
103.2609068226457
 20
207.8652190865172
 30
0.0
 10
103.4381072996343
 20
208.1477193893391
 30
0.0
 10
103.5578731009275
 20
208.3513589275249
 30
0.0
 10
103.7348886615387
 20
208.6824818288427
 30
0.0
 10
103.7934461651
 20
208.7971491291898
 30
0.0
 10
103.9086743749225
 20
209.0357353026494
 30
0.0
 10
103.9653462475431
 20
209.1596531934055
 30
0.0
 10
104.0205115913995
 20
209.2886157718839
 30
0.0
  0
SPLINE
  5
F1
330
1F
100
AcDbEntity
  8
1
  6
Continuous
 62
     1
370
    13
100
AcDbSpline
210
0.0
220
0.0
230
1.0
 70
     8
 71
     3
 72
    41
 73
    37
 74
     0
 42
0.000000001
 43
0.0000000001
 40
0.0
 40
0.0
 40
0.0
 40
0.0
 40
0.0625241021842872
 40
0.0625241021842872
 40
0.1250482043685743
 40
0.1250482043685743
 40
0.2500964087371478
 40
0.2500964087371478
 40
0.2657274342832199
 40
0.2657274342832199
 40
0.281358459829292
 40
0.281358459829292
 40
0.3126205109214371
 40
0.3126205109214371
 40
0.3751446131057279
 40
0.3751446131057279
 40
0.50019281747431
 40
0.50019281747431
 40
0.5627169196586007
 40
0.5627169196586007
 40
0.5939789707507461
 40
0.6096099962968189
 40
0.6096099962968189
 40
0.6252410218428915
 40
0.6252410218428915
 40
0.750289226211471
 40
0.750289226211471
 40
0.8753374305800504
 40
0.8753374305800504
 40
0.93786153276434
 40
0.93786153276434
 40
0.9534925583104126
 40
0.9534925583104126
 40
0.969123583856485
 40
0.969123583856485
 40
1.0
 40
1.0
 40
1.0
 40
1.0
 10
136.329643607986
 20
209.2365536298629
 30
0.0
 10
136.3850388583909
 20
209.1063099199374
 30
0.0
 10
136.4420809903492
 20
208.9809791351672
 30
0.0
 10
136.5583132743651
 20
208.7393822588602
 30
0.0
 10
136.6175044805453
 20
208.6231169335789
 30
0.0
 10
136.796775072513
 20
208.2870167918354
 30
0.0
 10
136.9185192347647
 20
208.0798169941366
 30
0.0
 10
137.0540066168304
 20
207.8638921245044
 30
0.0
 10
137.0690409581603
 20
207.8401402792218
 30
0.0
 10
137.0990572054567
 20
207.7931120802792
 30
0.0
 10
137.1140322582824
 20
207.7698467946393
 30
0.0
 10
137.1587179697068
 20
207.7009742092733
 30
0.0
 10
137.1882348976888
 20
207.6562176597598
 30
0.0
 10
137.2758423758195
 20
207.5252933852848
 30
0.0
 10
137.3329876174737
 20
207.4424658624152
 30
0.0
 10
137.4997504381345
 20
207.2065127535878
 30
0.0
 10
137.6046821733902
 20
207.0658518122794
 30
0.0
 10
137.7495658976555
 20
206.8778225036761
 30
0.0
 10
137.7957791872144
 20
206.8189901257313
 30
0.0
 10
137.86160294633
 20
206.7364010065778
 30
0.0
 10
137.8936408248146
 20
206.6965227261779
 30
0.0
 10
137.924297029122
 20
206.658761648145
 30
0.0
 10
137.944419500686
 20
206.6340581709653
 30
0.0
 10
137.9543304071927
 20
206.6219329813449
 30
0.0
 10
138.0418107615103
 20
206.5152467591554
 30
0.0
 10
138.10768583284
 20
206.4372680900568
 30
0.0
 10
138.2142863924719
 20
206.3125771038084
 30
0.0
 10
138.2550206025007
 20
206.2658744711978
 30
0.0
 10
138.2961258714025
 20
206.2189322258365
 30
0.0
 10
138.3064929785987
 20
206.207151111089
 30
0.0
 10
138.3151430279607
 20
206.1973310582444
 30
0.0
 10
138.3166575255085
 20
206.195612662752
 30
0.0
 10
138.3192516846064
 20
206.1926701535726
 30
0.0
 10
138.3203319311889
 20
206.1914453765449
 30
0.0
 10
138.3228890296724
 20
206.188546681401
 30
0.0
 10
138.3237234861196
 20
206.1876014331081
 30
0.0
 10
138.3237060592009
 20
206.1876211845144
 30
0.0
  0
SPLINE
  5
F2
330
1F
100
AcDbEntity
  8
1
  6
Continuous
 62
     1
370
    13
100
AcDbSpline
210
0.0
220
0.0
230
1.0
 70
     8
 71
     3
 72
    31
 73
    27
 74
     0
 42
0.000000001
 43
0.0000000001
 40
0.0
 40
0.0
 40
0.0
 40
0.0
 40
0.1249999999999998
 40
0.1249999999999998
 40
0.2499999999999996
 40
0.2499999999999996
 40
0.3124999999999996
 40
0.3124999999999996
 40
0.3749999999999996
 40
0.3749999999999996
 40
0.4062499999999996
 40
0.4062499999999996
 40
0.4374999999999997
 40
0.4374999999999997
 40
0.4999999999999998
 40
0.5624999999999999
 40
0.5624999999999999
 40
0.625
 40
0.625
 40
0.6875000000000001
 40
0.6875000000000001
 40
0.75
 40
0.75
 40
0.875
 40
0.875
 40
1.0
 40
1.0
 40
1.0
 40
1.0
 10
109.0934875715517
 20
211.5020052882489
 30
0.0
 10
110.0112384756332
 20
211.3594966296622
 30
0.0
 10
110.9311758680899
 20
211.2446649127622
 30
0.0
 10
112.7746654776312
 20
211.0606895024336
 30
0.0
 10
113.6982161638987
 20
210.9915261570197
 30
0.0
 10
115.0856086605908
 20
210.9138284686755
 30
0.0
 10
115.5484165000805
 20
210.8922610798166
 30
0.0
 10
116.4746140815383
 20
210.856445919277
 30
0.0
 10
116.9380033943492
 20
210.8421926807317
 30
0.0
 10
117.6334548748147
 20
210.825424188698
 30
0.0
 10
117.865320006046
 20
210.8206057569132
 30
0.0
 10
118.3289188959109
 20
210.8123989342022
 30
0.0
 10
118.5606841787688
 20
210.8090095862811
 30
0.0
 10
119.2558838455161
 20
210.8008490763661
 30
0.0
 10
120.182561912396
 20
210.7952862958929
 30
0.0
 10
121.1087605614548
 20
210.7997139243895
 30
0.0
 10
122.0347081481958
 20
210.8093795255847
 30
0.0
 10
122.4975562471242
 20
210.8168347985975
 30
0.0
 10
123.4229656791788
 20
210.8377463922988
 30
0.0
 10
123.8855267563527
 20
210.8512081783754
 30
0.0
 10
124.8103086886423
 20
210.8852753248252
 30
0.0
 10
125.2725292882679
 20
210.9058861427694
 30
0.0
 10
126.6585859792829
 20
210.9804598197687
 30
0.0
 10
127.5818155856018
 20
211.0471932725565
 30
0.0
 10
129.42613781906
 20
211.2258257707042
 30
0.0
 10
130.3472293198653
 20
211.3377490718574
 30
0.0
 10
131.2670155769427
 20
211.4773169534676
 30
0.0
  0
SPLINE
  5
F3
330
1F
100
AcDbEntity
  8
1
  6
Continuous
 62
     1
370
    13
100
AcDbSpline
210
0.0
220
0.0
230
1.0
 70
     8
 71
     3
 72
    40
 73
    36
 74
     0
 42
0.000000001
 43
0.0000000001
 40
0.0
 40
0.0
 40
0.0
 40
0.0
 40
0.0624999999999985
 40
0.124999999999997
 40
0.1874999999999954
 40
0.1874999999999954
 40
0.2031249999999948
 40
0.2031249999999948
 40
0.2187499999999941
 40
0.2187499999999941
 40
0.2499999999999946
 40
0.2499999999999946
 40
0.2812499999999949
 40
0.2812499999999949
 40
0.3124999999999954
 40
0.3124999999999954
 40
0.3749999999999959
 40
0.3749999999999959
 40
0.4374999999999964
 40
0.4374999999999964
 40
0.499999999999997
 40
0.499999999999997
 40
0.5624999999999974
 40
0.5624999999999974
 40
0.624999999999998
 40
0.624999999999998
 40
0.7499999999999979
 40
0.7499999999999979
 40
0.7812499999999979
 40
0.7812499999999979
 40
0.8124999999999978
 40
0.8124999999999978
 40
0.8749999999999986
 40
0.8749999999999986
 40
1.0
 40
1.0
 40
1.0
 40
1.0
 10
104.0205115913995
 20
209.2886157718839
 30
0.0
 10
104.0628541761639
 20
209.3876019927418
 30
0.0
 10
104.1590627218457
 20
209.5819766852659
 30
0.0
 10
104.337380682199
 20
209.862833977447
 30
0.0
 10
104.4791119027371
 20
210.0427127024046
 30
0.0
 10
104.5750741107572
 20
210.1526702010398
 30
0.0
 10
104.5946363108161
 20
210.174537953608
 30
0.0
 10
104.6345092976141
 20
210.2180200637125
 30
0.0
 10
104.6548159261576
 20
210.239628637157
 30
0.0
 10
104.716637619988
 20
210.3038273177407
 30
0.0
 10
104.7591265837176
 20
210.3458709313491
 30
0.0
 10
104.846650726296
 20
210.4284228673882
 30
0.0
 10
104.8917337143239
 20
210.4689640014639
 30
0.0
 10
104.9836606819597
 20
210.5478226720764
 30
0.0
 10
105.0305912527626
 20
210.5862261921101
 30
0.0
 10
105.1742071432892
 20
210.6983973373125
 30
0.0
 10
105.2737115294514
 20
210.7691318367708
 30
0.0
 10
105.4799706745409
 20
210.9025434244694
 30
0.0
 10
105.5867266267474
 20
210.9652194543681
 30
0.0
 10
105.8073712921861
 20
211.0823571868095
 30
0.0
 10
105.9212607829126
 20
211.1368182522513
 30
0.0
 10
106.1561755276434
 20
211.2372049814078
 30
0.0
 10
106.2775313903025
 20
211.2831813503873
 30
0.0
 10
106.5222922060393
 20
211.364636951605
 30
0.0
 10
106.6459413419932
 20
211.4002839302507
 30
0.0
 10
107.020391709468
 20
211.4927067603417
 30
0.0
 10
107.2746846781466
 20
211.5349915025725
 30
0.0
 10
107.5976351391205
 20
211.5653088549718
 30
0.0
 10
107.6624804092936
 20
211.5702429800149
 30
0.0
 10
107.7926660447085
 20
211.5778860148708
 30
0.0
 10
107.8580980894959
 20
211.5805953362755
 30
0.0
 10
108.0540785519302
 20
211.5854197549417
 30
0.0
 10
108.1845062638921
 20
211.5842589669082
 30
0.0
 10
108.5751422801518
 20
211.568681994366
 30
0.0
 10
108.8347026700264
 20
211.5421894918436
 30
0.0
 10
109.0934875715517
 20
211.5020052882489
 30
0.0
  0
SPLINE
  5
F4
330
1F
100
AcDbEntity
  8
1
  6
Continuous
 62
     1
370
    13
100
AcDbSpline
210
0.0
220
0.0
230
1.0
 70
     8
 71
     3
 72
    45
 73
    41
 74
     0
 42
0.000000001
 43
0.0000000001
 40
0.0
 40
0.0
 40
0.0
 40
0.0
 40
0.1250000000000035
 40
0.1250000000000035
 40
0.250000000000007
 40
0.250000000000007
 40
0.2812500000000083
 40
0.2812500000000083
 40
0.3125000000000096
 40
0.375000000000011
 40
0.375000000000011
 40
0.4375000000000123
 40
0.4375000000000123
 40
0.5000000000000137
 40
0.5000000000000137
 40
0.5156250000000138
 40
0.5156250000000138
 40
0.5312500000000139
 40
0.5312500000000139
 40
0.5625000000000135
 40
0.5625000000000135
 40
0.6250000000000133
 40
0.6250000000000133
 40
0.6875000000000131
 40
0.6875000000000131
 40
0.7500000000000128
 40
0.7500000000000128
 40
0.765625000000012
 40
0.765625000000012
 40
0.7812500000000112
 40
0.8125000000000094
 40
0.8125000000000094
 40
0.8750000000000044
 40
0.9374999999999994
 40
0.9374999999999994
 40
0.9531249999999996
 40
0.9531249999999996
 40
0.9687499999999997
 40
0.9687499999999997
 40
1.0
 40
1.0
 40
1.0
 40
1.0
 10
131.2670155769427
 20
211.4773169534676
 30
0.0
 10
131.5255885070385
 20
211.5165526735248
 30
0.0
 10
131.7843239672786
 20
211.5419264485227
 30
0.0
 10
132.3020539864537
 20
211.5605545282431
 30
0.0
 10
132.5610491247419
 20
211.553834442785
 30
0.0
 10
132.8848680806976
 20
211.5221652050843
 30
0.0
 10
132.949691828549
 20
211.5146570614644
 30
0.0
 10
133.0791020300468
 20
211.4972439723986
 30
0.0
 10
133.2720360748015
 20
211.467644866614
 30
0.0
 10
133.4613588752428
 20
211.4275646259752
 30
0.0
 10
133.7104330241953
 20
211.3646817878457
 30
0.0
 10
133.8332925634519
 20
211.3285206803825
 30
0.0
 10
134.0754699042773
 20
211.2465462186116
 30
0.0
 10
134.1947885544818
 20
211.2007349757041
 30
0.0
 10
134.3415692359555
 20
211.1372197033584
 30
0.0
 10
134.3708068025911
 20
211.1242036500847
 30
0.0
 10
134.429040095941
 20
211.0975380945555
 30
0.0
 10
134.4580196963348
 20
211.0838947294199
 30
0.0
 10
134.5441133533705
 20
211.0422416008586
 30
0.0
 10
134.6005400569644
 20
211.0134379372945
 30
0.0
 10
134.7669268057302
 20
210.923996713421
 30
0.0
 10
134.8739979703475
 20
210.8603345015204
 30
0.0
 10
135.0804060687315
 20
210.7252072579876
 30
0.0
 10
135.1797439319523
 20
210.6537428604077
 30
0.0
 10
135.3705049154231
 20
210.5030927016484
 30
0.0
 10
135.4619295863677
 20
210.4239081845462
 30
0.0
 10
135.5710320590509
 20
210.3200196077903
 30
0.0
 10
135.5925475954744
 20
210.2990380359129
 30
0.0
 10
135.6348169196429
 20
210.2568261022901
 30
0.0
 10
135.6971506818334
 20
210.1930659651828
 30
0.0
 10
135.7563083173347
 20
210.1280082427018
 30
0.0
 10
135.8704553212474
 20
209.9962238356585
 30
0.0
 10
136.0115526032089
 20
209.8160711703137
 30
0.0
 10
136.1307454526651
 20
209.6274281247894
 30
0.0
 10
136.1983177851324
 20
209.5068949397818
 30
0.0
 10
136.2114854172798
 20
209.4826563539807
 30
0.0
 10
136.2371223109432
 20
209.4339142867339
 30
0.0
 10
136.249598427625
 20
209.4093957396578
 30
0.0
 10
136.2858565905705
 20
209.3356785540999
 30
0.0
 10
136.3085050151879
 20
209.2862540776179
 30
0.0
 10
136.329643607986
 20
209.2365536298629
 30
0.0
  0
SPLINE
  5
F5
330
1F
100
AcDbEntity
  8
1
  6
Continuous
 62
     1
370
    13
100
AcDbSpline
210
0.0
220
0.0
230
1.0
 70
     8
 71
     3
 72
    35
 73
    31
 74
     0
 42
0.000000001
 43
0.0000000001
 40
0.0
 40
0.0
 40
0.0
 40
0.0
 40
0.0625000000000002
 40
0.0625000000000002
 40
0.1250000000000005
 40
0.1875000000000005
 40
0.1875000000000005
 40
0.2500000000000006
 40
0.2500000000000006
 40
0.3125000000000006
 40
0.3125000000000006
 40
0.3750000000000006
 40
0.3750000000000006
 40
0.4375000000000005
 40
0.4375000000000005
 40
0.5000000000000004
 40
0.5625000000000004
 40
0.5625000000000004
 40
0.6250000000000004
 40
0.6250000000000004
 40
0.6875000000000006
 40
0.6875000000000006
 40
0.7500000000000004
 40
0.7500000000000004
 40
0.8125000000000003
 40
0.8125000000000003
 40
0.8750000000000002
 40
0.9375000000000002
 40
0.9375000000000002
 40
1.0
 40
1.0
 40
1.0
 40
1.0
 10
131.3876930190997
 20
208.9214984554324
 30
0.0
 10
130.9205142954306
 20
208.9024583903155
 30
0.0
 10
130.4533380433902
 20
208.8889444307561
 30
0.0
 10
129.5189896893079
 20
208.8711951418348
 30
0.0
 10
128.5846454862899
 20
208.8627268664455
 30
0.0
 10
127.6503077342912
 20
208.8686818793884
 30
0.0
 10
126.7159721451957
 20
208.879472744552
 30
0.0
 10
126.2488054304027
 20
208.8872823093725
 30
0.0
 10
125.3144729935465
 20
208.9051209995017
 30
0.0
 10
124.847307267503
 20
208.9151412256824
 30
0.0
 10
123.9129756152961
 20
208.9347342469558
 30
0.0
 10
123.445809683163
 20
208.9442936948728
 30
0.0
 10
122.5114765545161
 20
208.9605856687709
 30
0.0
 10
122.0443093515713
 20
208.9673038163521
 30
0.0
 10
121.1099729391414
 20
208.9762538577444
 30
0.0
 10
120.1756345115298
 20
208.980698324989
 30
0.0
 10
119.2412915717756
 20
208.9750544741488
 30
0.0
 10
118.3069466827481
 20
208.9650524083014
 30
0.0
 10
117.839773268194
 20
208.9578825440082
 30
0.0
 10
116.9054252775915
 20
208.940945929059
 30
0.0
 10
116.4382507080511
 20
208.93119372866
 30
0.0
 10
115.503901498801
 20
208.9115324424951
 30
0.0
 10
115.0367268648719
 20
208.9016362809988
 30
0.0
 10
114.1023787279982
 20
208.8843726306619
 30
0.0
 10
113.635205228764
 20
208.8770134373753
 30
0.0
 10
112.7008605261239
 20
208.8674280993009
 30
0.0
 10
111.7665181223985
 20
208.862982709901
 30
0.0
 10
110.8321824092718
 20
208.8734962641825
 30
0.0
 10
109.8978509499348
 20
208.8935205070584
 30
0.0
 10
109.4306873465618
 20
208.9082866325193
 30
0.0
 10
108.9635262585618
 20
208.9286766676134
 30
0.0
  0
SPLINE
  5
F6
330
1F
100
AcDbEntity
  8
1
  6
Continuous
 62
     1
370
    13
100
AcDbSpline
210
0.0
220
0.0
230
1.0
 70
     8
 71
     3
 72
    47
 73
    43
 74
     0
 42
0.000000001
 43
0.0000000001
 40
0.0
 40
0.0
 40
0.0
 40
0.0
 40
0.1249999999999979
 40
0.1249999999999979
 40
0.2499999999999957
 40
0.2499999999999957
 40
0.2812499999999966
 40
0.2812499999999966
 40
0.3124999999999974
 40
0.3124999999999974
 40
0.3750000000000014
 40
0.3750000000000014
 40
0.4375000000000054
 40
0.4375000000000054
 40
0.5000000000000093
 40
0.5000000000000093
 40
0.531250000000011
 40
0.531250000000011
 40
0.5625000000000127
 40
0.5625000000000127
 40
0.625000000000015
 40
0.625000000000015
 40
0.6562500000000161
 40
0.6562500000000161
 40
0.6875000000000172
 40
0.6875000000000172
 40
0.7500000000000194
 40
0.7500000000000194
 40
0.7656250000000191
 40
0.7656250000000191
 40
0.7812500000000188
 40
0.8125000000000167
 40
0.8125000000000167
 40
0.875000000000014
 40
0.875000000000014
 40
0.8906250000000123
 40
0.8906250000000123
 40
0.9062500000000105
 40
0.9062500000000105
 40
0.9375000000000072
 40
0.9375000000000072
 40
1.0
 40
1.0
 40
1.0
 40
1.0
 10
133.879221721657
 20
207.1148513806603
 30
0.0
 10
133.8415593399872
 20
207.2460214502537
 30
0.0
 10
133.7954950152274
 20
207.3752009339988
 30
0.0
 10
133.6867091272382
 20
207.6296434518408
 30
0.0
 10
133.6240083725054
 20
207.7549177617951
 30
0.0
 10
133.5343176766516
 20
207.9085833693061
 30
0.0
 10
133.5158087303106
 20
207.9391674529606
 30
0.0
 10
133.4776027403492
 20
208.0000128844393
 30
0.0
 10
133.4579554779312
 20
208.0301919269754
 30
0.0
 10
133.3975753787669
 20
208.1196101169951
 30
0.0
 10
133.3553193080012
 20
208.1778793020792
 30
0.0
 10
133.2665531548477
 20
208.2914441639886
 30
0.0
 10
133.2200449514225
 20
208.3467417372244
 30
0.0
 10
133.1223441475059
 20
208.4539048822161
 30
0.0
 10
133.0711549744371
 20
208.5057738636046
 30
0.0
 10
132.9903400181118
 20
208.580472399746
 30
0.0
 10
132.962727499054
 20
208.6048521735896
 30
0.0
 10
132.9060316200339
 20
208.6524487364113
 30
0.0
 10
132.8771207404269
 20
208.6755180486551
 30
0.0
 10
132.7888066715604
 20
208.7422105593922
 30
0.0
 10
132.7277474226992
 20
208.7834011066925
 30
0.0
 10
132.6324313682328
 20
208.8393905935817
 30
0.0
 10
132.6000363703571
 20
208.8570845197113
 30
0.0
 10
132.5339001877287
 20
208.8903410078088
 30
0.0
 10
132.5001068756462
 20
208.9059253056391
 30
0.0
 10
132.3968691686106
 20
208.9489960114429
 30
0.0
 10
132.3263165004429
 20
208.9725071609177
 30
0.0
 10
132.2358175302728
 20
208.9946390801391
 30
0.0
 10
132.2176132286888
 20
208.9986976677244
 30
0.0
 10
132.1812427304763
 20
209.0060218868105
 30
0.0
 10
132.1266457577519
 20
209.0158440057381
 30
0.0
 10
132.0719364226056
 20
209.0221947536337
 30
0.0
 10
131.9623953440022
 20
209.0303363028725
 30
0.0
 10
131.8892056623536
 20
209.0296786846484
 30
0.0
 10
131.7975928215109
 20
209.0215526753607
 30
0.0
 10
131.7792638946574
 20
209.0195626871425
 30
0.0
 10
131.7425949687484
 20
209.0148623772473
 30
0.0
 10
131.7242489638344
 20
209.0121494775909
 30
0.0
 10
131.6696008175401
 20
209.0030221212853
 30
0.0
 10
131.6335507412354
 20
208.995604307979
 30
0.0
 10
131.5264597793707
 20
208.9697129405338
 30
0.0
 10
131.4564764553528
 20
208.9476113844152
 30
0.0
 10
131.3876930190997
 20
208.9214984554324
 30
0.0
  0
SPLINE
  5
F7
330
1F
100
AcDbEntity
  8
1
  6
Continuous
 62
     1
370
    13
100
AcDbSpline
210
0.0
220
0.0
230
1.0
 70
     8
 71
     3
 72
    47
 73
    43
 74
     0
 42
0.000000001
 43
0.0000000001
 40
0.0
 40
0.0
 40
0.0
 40
0.0
 40
0.0624999999999962
 40
0.0624999999999962
 40
0.1249999999999923
 40
0.1249999999999923
 40
0.1562499999999911
 40
0.1562499999999911
 40
0.1718749999999905
 40
0.1718749999999905
 40
0.1874999999999899
 40
0.1874999999999899
 40
0.2499999999999862
 40
0.2499999999999862
 40
0.3124999999999825
 40
0.3124999999999825
 40
0.3281249999999821
 40
0.3281249999999821
 40
0.3437499999999817
 40
0.3749999999999809
 40
0.3749999999999809
 40
0.4062499999999801
 40
0.4062499999999801
 40
0.4374999999999793
 40
0.4374999999999793
 40
0.4999999999999789
 40
0.4999999999999789
 40
0.5624999999999785
 40
0.5624999999999785
 40
0.6249999999999781
 40
0.6249999999999781
 40
0.6562499999999792
 40
0.6562499999999792
 40
0.6874999999999802
 40
0.6874999999999802
 40
0.7187499999999813
 40
0.7187499999999813
 40
0.7499999999999825
 40
0.7499999999999825
 40
0.8749999999999912
 40
0.8749999999999912
 40
1.0
 40
1.0
 40
1.0
 40
1.0
 10
108.9635262585618
 20
208.9286766676134
 30
0.0
 10
108.8948272286973
 20
208.9551129733827
 30
0.0
 10
108.8251474862509
 20
208.9775284951237
 30
0.0
 10
108.6835456808332
 20
209.0128794429379
 30
0.0
 10
108.6116232626643
 20
209.0258158269532
 30
0.0
 10
108.5018399730563
 20
209.0368650851004
 30
0.0
 10
108.4649171723945
 20
209.0391540277721
 30
0.0
 10
108.4090665956528
 20
209.0403215187087
 30
0.0
 10
108.3904462847662
 20
209.0403315141247
 30
0.0
 10
108.3532006188531
 20
209.039582926284
 30
0.0
 10
108.3345543460879
 20
209.0388222570928
 30
0.0
 10
108.2418118428899
 20
209.0331118298676
 30
0.0
 10
108.1688738382587
 20
209.0224459721532
 30
0.0
 10
108.0254968765011
 20
208.9896346788869
 30
0.0
 10
107.9550573321677
 20
208.967492565559
 30
0.0
 10
107.868564857433
 20
208.9330977821536
 30
0.0
 10
107.8513330078903
 20
208.9258767596292
 30
0.0
 10
107.8172327881932
 20
208.9108694759171
 30
0.0
 10
107.7665501959857
 20
208.8874811950845
 30
0.0
 10
107.7172228667217
 20
208.8615745536134
 30
0.0
 10
107.6525848459241
 20
208.8249693538505
 30
0.0
 10
107.6208128105145
 20
208.8056228029931
 30
0.0
 10
107.5584179143741
 20
208.7650667451336
 30
0.0
 10
107.5280177705713
 20
208.7440048862313
 30
0.0
 10
107.4389874272912
 20
208.6787334877333
 30
0.0
 10
107.3825163709735
 20
208.632450727236
 30
0.0
 10
107.2744890617504
 20
208.5353801067766
 30
0.0
 10
107.2229369611372
 20
208.4845873340828
 30
0.0
 10
107.1242128277726
 20
208.3791665795288
 30
0.0
 10
107.0770430893391
 20
208.3245358455165
 30
0.0
 10
107.0093292071186
 20
208.2400391431956
 30
0.0
 10
106.9872661414668
 20
208.2114468664408
 30
0.0
 10
106.9441307171773
 20
208.1534467225011
 30
0.0
 10
106.9230551792887
 20
208.1240310939067
 30
0.0
 10
106.8820645302073
 20
208.0646945250372
 30
0.0
 10
106.8621261244238
 20
208.0347404639253
 30
0.0
 10
106.8234881024197
 20
207.9745539862222
 30
0.0
 10
106.8047653597032
 20
207.9442887120465
 30
0.0
 10
106.7140187716134
 20
207.7921660432561
 30
0.0
 10
106.6505152833905
 20
207.6679643571418
 30
0.0
 10
106.5402524027651
 20
207.4153693359486
 30
0.0
 10
106.4935130061936
 20
207.2869645942602
 30
0.0
 10
106.4552673926269
 20
207.1564117696414
 30
0.0
  0
SPLINE
  5
F8
330
1F
100
AcDbEntity
  8
1
  6
Continuous
 62
     1
370
    13
100
AcDbSpline
210
0.0
220
0.0
230
1.0
 70
     8
 71
     3
 72
    14
 73
    10
 74
     0
 42
0.000000001
 43
0.0000000001
 40
0.0
 40
0.0
 40
0.0
 40
0.0
 40
0.2500000000000009
 40
0.2500000000000009
 40
0.3750000000000006
 40
0.3750000000000006
 40
0.5000000000000003
 40
0.5000000000000003
 40
1.0
 40
1.0
 40
1.0
 40
1.0
 10
109.6358731852348
 20
202.2473953519615
 30
0.0
 10
109.7923290048209
 20
202.1716709125561
 30
0.0
 10
109.9530639288101
 20
202.0964669525738
 30
0.0
 10
110.2002886136649
 20
201.9842438682707
 30
0.0
 10
110.283717871339
 20
201.9469326703718
 30
0.0
 10
110.4525747229659
 20
201.8724640110024
 30
0.0
 10
110.5380417072081
 20
201.8352896756741
 30
0.0
 10
110.9697891729217
 20
201.6499023273547
 30
0.0
 10
111.3285885179604
 20
201.5034170837117
 30
0.0
 10
111.6991846161019
 20
201.3573355674096
 30
0.0
  0
SPLINE
  5
F9
330
1F
100
AcDbEntity
  8
1
  6
Continuous
 62
     1
370
    18
100
AcDbSpline
210
0.0
220
0.0
230
1.0
 70
     8
 71
     3
 72
    17
 73
    13
 74
     0
 42
0.000000001
 43
0.0000000001
 40
0.0
 40
0.0
 40
0.0
 40
0.0
 40
0.109217185525405
 40
0.2204747875288849
 40
0.3287331360298091
 40
0.4342702535935219
 40
0.5372606580275582
 40
0.637796413811207
 40
0.7359038026481103
 40
0.8315510215184373
 40
0.9246497477009743
 40
1.0
 40
1.0
 40
1.0
 40
1.0
 10
102.0495653803407
 20
206.2709510224938
 30
0.0
 10
102.1906264437663
 20
206.1902477158848
 30
0.0
 10
102.4638443758026
 20
206.0122988910683
 30
0.0
 10
102.838461087371
 20
205.6991942369543
 30
0.0
 10
103.1708359908024
 20
205.3499723141263
 30
0.0
 10
103.454776377774
 20
204.9754835804505
 30
0.0
 10
103.6903791512354
 20
204.5822389666725
 30
0.0
 10
103.8782177199315
 20
204.1762305045149
 30
0.0
 10
104.0195322530373
 20
203.7632635213631
 30
0.0
 10
104.1154763996515
 20
203.3489757903359
 30
0.0
 10
104.1671157247035
 20
202.9604998524732
 30
0.0
 10
104.1753072003096
 20
202.7114107808099
 30
0.0
 10
104.1742947486125
 20
202.5995343270408
 30
0.0
  0
SPLINE
  5
FA
330
1F
100
AcDbEntity
  8
1
  6
Continuous
 62
     1
370
    18
100
AcDbSpline
210
0.0
220
0.0
230
1.0
 70
     8
 71
     3
 72
    18
 73
    14
 74
     0
 42
0.000000001
 43
0.0000000001
 40
0.0
 40
0.0
 40
0.0
 40
0.0
 40
0.0562233677131248
 40
0.1557928950798082
 40
0.256580869536186
 40
0.3581908182719905
 40
0.460365287883423
 40
0.5629301480162859
 40
0.6657620731445251
 40
0.7784706576272343
 40
0.8883172347781115
 40
0.9952750826527987
 40
1.0
 40
1.0
 40
1.0
 40
1.0
 10
136.1824089158783
 20
202.5033683966983
 30
0.0
 10
136.1801132287743
 20
202.587139286272
 30
0.0
 10
136.1819294456983
 20
202.8186232984348
 30
0.0
 10
136.228511795332
 20
203.1984305698164
 30
0.0
 10
136.3249632784025
 20
203.6374393464108
 30
0.0
 10
136.4700156513412
 20
204.0673794894833
 30
0.0
 10
136.6609006622883
 20
204.4817779360016
 30
0.0
 10
136.8961308866702
 20
204.8749699160243
 30
0.0
 10
137.1819067349278
 20
205.2527128418498
 30
0.0
 10
137.5154233866539
 20
205.6052484114618
 30
0.0
 10
137.8951205177232
 20
205.9149266523696
 30
0.0
 10
138.1656791672904
 20
206.1062320906458
 30
0.0
 10
138.3138341386788
 20
206.1811596415872
 30
0.0
 10
138.3201162943935
 20
206.1843060574838
 30
0.0
  0
SPLINE
  5
FB
330
1F
100
AcDbEntity
  8
1
  6
Continuous
 62
     1
370
    13
100
AcDbSpline
210
0.0
220
0.0
230
1.0
 70
     8
 71
     3
 72
    18
 73
    14
 74
     0
 42
0.000000001
 43
0.0000000001
 40
0.0
 40
0.0
 40
0.0
 40
0.0
 40
0.2500000000000004
 40
0.2500000000000004
 40
0.5000000000000009
 40
0.5000000000000009
 40
0.7500000000000013
 40
0.7500000000000013
 40
0.875000000000001
 40
0.875000000000001
 40
0.9375000000000006
 40
0.9375000000000006
 40
1.0
 40
1.0
 40
1.0
 40
1.0
 10
248.1667984229059
 20
205.5886957799695
 30
0.0
 10
248.2302081721226
 20
205.6893059153934
 30
0.0
 10
248.3029834596107
 20
205.7949766472255
 30
0.0
 10
248.4706102442109
 20
206.0130058802758
 30
0.0
 10
248.5654664228232
 20
206.1253876898328
 30
0.0
 10
248.7803747230319
 20
206.3551575632584
 30
0.0
 10
248.9004160416285
 20
206.4725610652643
 30
0.0
 10
249.1016031143889
 20
206.651987431244
 30
0.0
 10
249.1721863751047
 20
206.7123569647693
 30
0.0
 10
249.2836399179817
 20
206.8037521754316
 30
-0.0000000000000008
 10
249.3217200017008
 20
206.8343559385161
 30
-0.0000000000000008
 10
249.3996124861026
 20
206.8957101870728
 30
-0.0000000000000008
 10
249.4394450232923
 20
206.9264774070825
 30
-0.0000000000000008
 10
249.4801803741264
 20
206.957335567409
 30
-0.0000000000000008
  0
SPLINE
  5
FC
330
1F
100
AcDbEntity
  8
1
  6
Continuous
 62
     1
370
    13
100
AcDbSpline
210
0.0
220
0.0
230
1.0
 70
     8
 71
     3
 72
    14
 73
    10
 74
     0
 42
0.000000001
 43
0.0000000001
 40
0.0
 40
0.0
 40
0.0
 40
0.0
 40
0.500000000000003
 40
0.500000000000003
 40
0.6250000000000029
 40
0.6250000000000029
 40
0.7500000000000027
 40
0.7500000000000027
 40
1.0
 40
1.0
 40
1.0
 40
1.0
 10
249.4801803741277
 20
206.9573355674096
 30
-0.0000000000000008
 10
249.673112672152
 20
207.103487144914
 30
-0.0000000000000008
 10
249.8852955171814
 20
207.2498803475026
 30
-0.0000000000000008
 10
250.1765069703738
 20
207.4349163593604
 30
-0.0000000000000008
 10
250.2360484580446
 20
207.4720269440538
 30
-0.0000000000000008
 10
250.3577819296522
 20
207.5465000528087
 30
-0.0000000000000008
 10
250.4200063914197
 20
207.5838817194951
 30
-0.0000000000000008
 10
250.6104954725653
 20
207.6963249374164
 30
-0.0000000000000008
 10
250.7424622337617
 20
207.771626241223
 30
-0.0000000000000007
 10
250.8795564456421
 20
207.8473953519615
 30
-0.0000000000000007
  0
SPLINE
  5
FD
330
1F
100
AcDbEntity
  8
1
  6
Continuous
 62
     1
370
    13
100
AcDbSpline
210
0.0
220
0.0
230
1.0
 70
     8
 71
     3
 72
    18
 73
    14
 74
     0
 42
0.000000001
 43
0.0000000001
 40
0.0
 40
0.0
 40
0.0
 40
0.0
 40
0.2500000000000001
 40
0.2500000000000001
 40
0.5000000000000007
 40
0.5000000000000007
 40
0.7500000000000012
 40
0.7500000000000012
 40
0.812500000000001
 40
0.812500000000001
 40
0.8750000000000009
 40
0.8750000000000009
 40
1.0
 40
1.0
 40
1.0
 40
1.0
 10
276.3526503601791
 20
206.9573355674096
 30
0.0000000000000008
 10
276.5153486247835
 20
206.83408711045
 30
0.0000000000000008
 10
276.6629098054854
 20
206.7128366539584
 30
0.0
 10
276.9305873381896
 20
206.4742690933276
 30
0.0
 10
277.0506870244847
 20
206.3569434651045
 30
0.0
 10
277.2660407729902
 20
206.1269066673479
 30
0.0
 10
277.3612842702662
 20
206.0141786497793
 30
0.0
 10
277.4665793226197
 20
205.8772792362548
 30
0.0
 10
277.486945053177
 20
205.8501109920176
 30
0.0
 10
277.5262938323474
 20
205.7963083670466
 30
0.0
 10
277.5452846872782
 20
205.7696639194892
 30
0.0
 10
277.6002955339321
 20
205.69057087532
 30
0.0
 10
277.6343542767153
 20
205.6389582616706
 30
0.0
 10
277.6660323114002
 20
205.5886957799705
 30
0.0
  0
SPLINE
  5
FE
330
1F
100
AcDbEntity
  8
1
  6
Continuous
 62
     1
370
    13
100
AcDbSpline
210
0.0
220
0.0
230
1.0
 70
     8
 71
     3
 72
    48
 73
    44
 74
     0
 42
0.000000001
 43
0.0000000001
 40
0.0
 40
0.0
 40
0.0
 40
0.0
 40
0.1249999999999962
 40
0.1249999999999962
 40
0.2499999999999924
 40
0.2499999999999924
 40
0.2812499999999912
 40
0.2812499999999912
 40
0.31249999999999
 40
0.31249999999999
 40
0.3749999999999852
 40
0.3749999999999852
 40
0.4374999999999805
 40
0.4374999999999805
 40
0.4999999999999757
 40
0.4999999999999757
 40
0.5312499999999748
 40
0.5312499999999748
 40
0.562499999999974
 40
0.562499999999974
 40
0.6249999999999754
 40
0.6249999999999754
 40
0.6562499999999772
 40
0.6562499999999772
 40
0.6718749999999789
 40
0.6718749999999789
 40
0.6874999999999806
 40
0.6874999999999806
 40
0.7499999999999848
 40
0.7499999999999848
 40
0.7812499999999869
 40
0.7812499999999869
 40
0.8124999999999889
 40
0.8124999999999889
 40
0.8749999999999933
 40
0.8749999999999933
 40
0.8906249999999944
 40
0.8906249999999944
 40
0.9062499999999956
 40
0.9062499999999956
 40
0.9374999999999976
 40
0.9374999999999976
 40
1.0
 40
1.0
 40
1.0
 40
1.0
 10
254.6874554121682
 20
212.7564117696415
 30
-0.0000000000000005
 10
254.6237227035322
 20
212.8868800702784
 30
-0.0000000000000005
 10
254.5642723327591
 20
213.0152924630825
 30
-0.0000000000000005
 10
254.4539394217111
 20
213.2680685099655
 30
-0.0000000000000005
 10
254.4030616577959
 20
213.3924439466858
 30
-0.0000000000000005
 10
254.3446431146552
 20
213.5448807151634
 30
-0.0000000000000005
 10
254.3332173642243
 20
213.5752136551706
 30
-0.0000000000000005
 10
254.3108725880226
 20
213.6355449369006
 30
-0.0000000000000005
 10
254.3000025793771
 20
213.6654114095346
 30
-0.0000000000000005
 10
254.2683131804904
 20
213.7539317073238
 30
-0.0000000000000005
 10
254.24839228551
 20
213.8115741910776
 30
-0.0000000000000005
 10
254.2107230857127
 20
213.9238203680381
 30
-0.0000000000000005
 10
254.1929756896774
 20
213.9784259906351
 30
-0.0000000000000005
 10
254.1593677297297
 20
214.084126735437
 30
-0.0000000000000005
 10
254.1435086572679
 20
214.1352253166606
 30
-0.0000000000000005
 10
254.1208582177157
 20
214.208695406834
 30
-0.0000000000000005
 10
254.1134929327172
 20
214.2326666442782
 30
-0.0000000000000005
 10
254.0990979119204
 20
214.2793646347486
 30
-0.0000000000000005
 10
254.0921155586823
 20
214.3019368044461
 30
-0.0000000000000005
 10
254.0716988234993
 20
214.3671545273374
 30
-0.0000000000000005
 10
254.0587991585777
 20
214.4073144682066
 30
-0.0000000000000005
 10
254.0399909869142
 20
214.4616925678394
 30
-0.0000000000000005
 10
254.0338108150243
 20
214.4788385325539
 30
-0.0000000000000005
 10
254.0245975157057
 20
214.5029445547196
 30
-0.0000000000000005
 10
254.021535820221
 20
214.5107108259579
 30
-0.0000000000000005
 10
254.0154172540438
 20
214.5256782060704
 30
-0.0000000000000005
 10
254.0123561545466
 20
214.5328886736589
 30
-0.0000000000000005
 10
253.9970819932585
 20
214.5673292372151
 30
-0.0000000000000005
 10
253.9849953464305
 20
214.5896747552674
 30
-0.0000000000000005
 10
253.9663604258546
 20
214.6145310663642
 30
-0.0000000000000005
 10
253.9601107581357
 20
214.6213031831948
 30
-0.0000000000000005
 10
253.947492590955
 20
214.6317822592402
 30
-0.0000000000000005
 10
253.9411143741603
 20
214.6355023565913
 30
-0.0000000000000005
 10
253.9216363608682
 20
214.6421820915804
 30
-0.0000000000000006
 10
253.9081868419713
 20
214.6406561820459
 30
-0.0000000000000006
 10
253.8904384582842
 20
214.6316032322249
 30
-0.0000000000000006
 10
253.8868424539891
 20
214.6294357465821
 30
-0.0000000000000006
 10
253.8795508471585
 20
214.6243967322585
 30
-0.0000000000000006
 10
253.8758518258411
 20
214.6215212231404
 30
-0.0000000000000006
 10
253.8646752900872
 20
214.6119284356487
 30
-0.0000000000000006
 10
253.8570938603571
 20
214.6042315784875
 30
-0.0000000000000006
 10
253.8339185211537
 20
214.577586530965
 30
-0.0000000000000006
 10
253.8178894139545
 20
214.5550934857666
 30
-0.0000000000000006
 10
253.8012401588159
 20
214.5286766676134
 30
-0.0000000000000006
  0
SPLINE
  5
FF
330
1F
100
AcDbEntity
  8
1
  6
Continuous
 62
     1
370
    13
100
AcDbSpline
210
0.0
220
0.0
230
1.0
 70
     8
 71
     3
 72
    47
 73
    43
 74
     0
 42
0.000000001
 43
0.0000000001
 40
0.0
 40
0.0
 40
0.0
 40
0.0
 40
0.0624999999999962
 40
0.0624999999999962
 40
0.1249999999999923
 40
0.1249999999999923
 40
0.1562499999999911
 40
0.1562499999999911
 40
0.1718749999999905
 40
0.1718749999999905
 40
0.1874999999999899
 40
0.1874999999999899
 40
0.2499999999999862
 40
0.2499999999999862
 40
0.3124999999999825
 40
0.3124999999999825
 40
0.3281249999999821
 40
0.3281249999999821
 40
0.3437499999999817
 40
0.3749999999999809
 40
0.3749999999999809
 40
0.4062499999999801
 40
0.4062499999999801
 40
0.4374999999999793
 40
0.4374999999999793
 40
0.4999999999999789
 40
0.4999999999999789
 40
0.5624999999999785
 40
0.5624999999999785
 40
0.6249999999999781
 40
0.6249999999999781
 40
0.6562499999999792
 40
0.6562499999999792
 40
0.6874999999999802
 40
0.6874999999999802
 40
0.7187499999999813
 40
0.7187499999999813
 40
0.7499999999999825
 40
0.7499999999999825
 40
0.8749999999999912
 40
0.8749999999999912
 40
1.0
 40
1.0
 40
1.0
 40
1.0
 10
272.0315905754908
 20
214.5286766676134
 30
0.0000000000000006
 10
272.0149290382413
 20
214.5551129733827
 30
0.0000000000000006
 10
271.998943298415
 20
214.5775284951238
 30
0.0000000000000006
 10
271.968234364826
 20
214.6128794429379
 30
0.0000000000000006
 10
271.9535137939662
 20
214.6258158269532
 30
0.0000000000000006
 10
271.9321834730678
 20
214.6368650851004
 30
0.0000000000000006
 10
271.9251946645106
 20
214.6391540277721
 30
0.0000000000000006
 10
271.9148602531949
 20
214.6403215187087
 30
0.0000000000000006
 10
271.9114538076987
 20
214.6403315141247
 30
0.0000000000000006
 10
271.9047079472188
 20
214.639582926284
 30
0.0000000000000006
 10
271.901364872716
 20
214.6388222570928
 30
0.0000000000000006
 10
271.8848782374247
 20
214.6331118298676
 30
0.0000000000000005
 10
271.8723663735403
 20
214.6224459721532
 30
0.0000000000000005
 10
271.8478436046523
 20
214.5896346788869
 30
0.0000000000000005
 10
271.8358317710092
 20
214.5674925655591
 30
0.0000000000000005
 10
271.8205647171755
 20
214.5330977821536
 30
0.0000000000000005
 10
271.8174964771355
 20
214.5258767596293
 30
0.0000000000000005
 10
271.8113579826674
 20
214.5108694759172
 30
0.0000000000000005
 10
271.8021337894445
 20
214.4874811950845
 30
0.0000000000000005
 10
271.7927962130101
 20
214.4615745536134
 30
0.0000000000000005
 10
271.7801407668367
 20
214.4249693538505
 30
0.0000000000000005
 10
271.7737064274936
 20
214.4056228029932
 30
0.0000000000000005
 10
271.7605530818976
 20
214.3650667451336
 30
0.0000000000000005
 10
271.7538812533472
 20
214.3440048862313
 30
0.0000000000000005
 10
271.7334587157569
 20
214.2787334877333
 30
0.0000000000000005
 10
271.7192965340473
 20
214.232450727236
 30
0.0000000000000005
 10
271.6893694177157
 20
214.1353801067767
 30
0.0000000000000005
 10
271.6736065715544
 20
214.0845873340828
 30
0.0000000000000005
 10
271.6400933672049
 20
213.9791665795288
 30
0.0000000000000005
 10
271.6223442801365
 20
213.9245358455165
 30
0.0000000000000005
 10
271.5939928461954
 20
213.8400391431956
 30
0.0000000000000005
 10
271.5842548281988
 20
213.8114468664408
 30
0.0000000000000005
 10
271.5641678559104
 20
213.7534467225012
 30
0.0000000000000005
 10
271.5538156488325
 20
213.7240310939067
 30
0.0000000000000005
 10
271.5325692538125
 20
213.6646945250372
 30
0.0000000000000005
 10
271.5216632438828
 20
213.6347404639254
 30
0.0000000000000005
 10
271.4993659260922
 20
213.5745539862222
 30
0.0000000000000005
 10
271.4879630188384
 20
213.5442887120466
 30
0.0000000000000005
 10
271.4296533822193
 20
213.3921660432561
 30
0.0000000000000005
 10
271.3788460941928
 20
213.2679643571418
 30
0.0000000000000005
 10
271.2685917126365
 20
213.0153693359486
 30
0.0000000000000005
 10
271.2091493200555
 20
212.8869645942603
 30
0.0000000000000005
 10
271.1453753221385
 20
212.7564117696415
 30
0.0000000000000005
  0
SPLINE
  5
100
330
1F
100
AcDbEntity
  8
1
  6
Continuous
 62
     1
370
    13
100
AcDbSpline
210
0.0
220
0.0
230
1.0
 70
     8
 71
     3
 72
    66
 73
    62
 74
     0
 42
0.000000001
 43
0.0000000001
 40
0.0
 40
0.0
 40
0.0
 40
0.0
 40
0.0624999999999999
 40
0.0624999999999999
 40
0.1249999999999998
 40
0.1249999999999998
 40
0.1562499999999998
 40
0.1562499999999998
 40
0.1718749999999997
 40
0.1796874999999997
 40
0.1796874999999997
 40
0.1874999999999997
 40
0.1874999999999997
 40
0.2499999999999995
 40
0.2499999999999995
 40
0.3124999999999994
 40
0.3124999999999994
 40
0.3437499999999993
 40
0.3437499999999993
 40
0.3515624999999994
 40
0.3515624999999994
 40
0.3593749999999994
 40
0.3749999999999994
 40
0.3749999999999994
 40
0.4374999999999993
 40
0.4374999999999993
 40
0.4687499999999992
 40
0.4999999999999991
 40
0.4999999999999991
 40
0.5156249999999991
 40
0.5156249999999991
 40
0.5234374999999991
 40
0.5234374999999991
 40
0.5312499999999991
 40
0.562499999999999
 40
0.562499999999999
 40
0.624999999999999
 40
0.624999999999999
 40
0.6562499999999989
 40
0.6562499999999989
 40
0.6718749999999989
 40
0.6718749999999989
 40
0.6874999999999988
 40
0.6874999999999988
 40
0.7187499999999988
 40
0.7187499999999988
 40
0.7499999999999989
 40
0.7499999999999989
 40
0.812499999999999
 40
0.812499999999999
 40
0.8437499999999988
 40
0.8437499999999988
 40
0.8593749999999989
 40
0.8593749999999989
 40
0.8671874999999989
 40
0.8671874999999989
 40
0.8749999999999989
 40
0.8749999999999989
 40
0.9374999999999994
 40
0.9374999999999994
 40
1.0
 40
1.0
 40
1.0
 40
1.0
 10
271.1453753221385
 20
212.7564117696415
 30
0.0000000000000005
 10
270.9323318792304
 20
212.4091707952792
 30
0.0000000000000005
 10
270.7016214961998
 20
212.079444972405
 30
0.0000000000000005
 10
270.2037853987206
 20
211.4536995299897
 30
0.0000000000000004
 10
269.9366718859009
 20
211.1576729698405
 30
0.0000000000000004
 10
269.5069031518347
 20
210.7388166331891
 30
0.0000000000000004
 10
269.3587858497012
 20
210.6034050759589
 30
0.0000000000000004
 10
269.1289699407866
 20
210.4066904639993
 30
0.0000000000000004
 10
269.012150547858
 20
210.309935013438
 30
0.0000000000000004
 10
268.8923840755647
 20
210.2156111565538
 30
0.0000000000000004
 10
268.8118748327434
 20
210.1532730265476
 30
0.0000000000000004
 10
268.7713248812564
 20
210.1224058321852
 30
0.0000000000000004
 10
268.4047063952568
 20
209.8480607807373
 30
0.0000000000000003
 10
268.0649516212779
 20
209.6271091220926
 30
0.0000000000000003
 10
267.3572198793771
 20
209.2295038194501
 30
0.0000000000000003
 10
266.9892521152559
 20
209.0528429242471
 30
0.0000000000000002
 10
266.4148184663186
 20
208.8217127506328
 30
0.0000000000000002
 10
266.2195828142915
 20
208.7503319115335
 30
0.0000000000000002
 10
265.9706057567486
 20
208.6684146672101
 30
0.0000000000000002
 10
265.9205309692247
 20
208.6523870843175
 30
0.0000000000000002
 10
265.8200232273986
 20
208.6211158337335
 30
0.0000000000000002
 10
265.6690358158298
 20
208.575480116475
 30
0.0000000000000002
 10
265.5173749209641
 20
208.5336228913016
 30
0.0000000000000002
 10
265.0103549860671
 20
208.4023712344564
 30
0.0000000000000001
 10
264.6000090979832
 20
208.3237196554781
 30
0.0000000000000001
 10
263.9774298509175
 20
208.2443869517226
 30
0.0000000000000001
 10
263.5600164835628
 20
208.2044288202752
 30
0.0
 10
263.1378080944314
 20
208.1906190362042
 30
0.0
 10
262.8193022609313
 20
208.1903322760633
 30
0.0
 10
262.7128251382655
 20
208.1919168001816
 30
0.0
 10
262.5526377964064
 20
208.1968630756911
 30
0.0
 10
262.4991205147179
 20
208.1989431329733
 30
0.0
 10
262.3924444883723
 20
208.2039417295605
 30
0.0
 10
262.1263671532977
 20
208.2185419092681
 30
0.0
 10
261.8633139570995
 20
208.2435278130804
 30
-0.0000000000000001
 10
261.2375889130731
 20
208.322821044019
 30
-0.0000000000000001
 10
260.8278871675141
 20
208.4013596858186
 30
-0.0000000000000001
 10
260.2241371000006
 20
208.5570739318818
 30
-0.0000000000000002
 10
260.0246931967492
 20
208.6153202826107
 30
-0.0000000000000002
 10
259.7282392156926
 20
208.7123372399425
 30
-0.0000000000000002
 10
259.6298735294972
 20
208.7462855809793
 30
-0.0000000000000002
 10
259.4340511890582
 20
208.8174412798476
 30
-0.0000000000000002
 10
259.3365565150557
 20
208.8546638743884
 30
-0.0000000000000002
 10
259.0456802768581
 20
208.971205473272
 30
-0.0000000000000002
 10
258.8562030119
 20
209.0544642261384
 30
-0.0000000000000002
 10
258.485660621848
 20
209.231735232598
 30
-0.0000000000000003
 10
258.3045964137465
 20
209.3257484881987
 30
-0.0000000000000003
 10
257.7735113311281
 20
209.623616370411
 30
-0.0000000000000003
 10
257.4355557090055
 20
209.8432338417681
 30
-0.0000000000000003
 10
256.951610184654
 20
210.2042930125953
 30
-0.0000000000000004
 10
256.7941375344659
 20
210.3299350599469
 30
-0.0000000000000004
 10
256.5636393906088
 20
210.5264880988782
 30
-0.0000000000000004
 10
256.4877590812121
 20
210.5933551086282
 30
-0.0000000000000004
 10
256.375365903953
 20
210.695708301532
 30
-0.0000000000000004
 10
256.3381290537773
 20
210.7301789686924
 30
-0.0000000000000004
 10
256.2643675677224
 20
210.7995840068034
 30
-0.0000000000000004
 10
256.2278133379909
 20
210.8345448897389
 30
-0.0000000000000004
 10
255.901726849795
 20
211.1515080357601
 30
-0.0000000000000004
 10
255.6324308231654
 20
211.4496600686687
 30
-0.0000000000000004
 10
255.1318328947486
 20
212.0784469397358
 30
-0.0000000000000005
 10
254.9005475572068
 20
212.4090914153416
 30
-0.0000000000000005
 10
254.6874554121682
 20
212.7564117696415
 30
-0.0000000000000005
  0
SPLINE
  5
101
330
1F
100
AcDbEntity
  8
1
  6
Continuous
 62
     1
370
    13
100
AcDbSpline
210
0.0
220
0.0
230
1.0
 70
     8
 71
     3
 72
    14
 73
    10
 74
     0
 42
0.000000001
 43
0.0000000001
 40
0.0
 40
0.0
 40
0.0
 40
0.0
 40
0.2500000000000009
 40
0.2500000000000009
 40
0.3750000000000006
 40
0.3750000000000006
 40
0.5000000000000003
 40
0.5000000000000003
 40
1.0
 40
1.0
 40
1.0
 40
1.0
 10
274.9532742886647
 20
207.8473953519615
 30
0.0000000000000007
 10
275.0902876736601
 20
207.7716709125561
 30
0.0000000000000007
 10
275.2220833487117
 20
207.6964669525738
 30
0.0000000000000008
 10
275.4122164602501
 20
207.5842438682708
 30
0.0000000000000008
 10
275.4743328831182
 20
207.5469326703718
 30
0.0000000000000008
 10
275.5960765128847
 20
207.4724640110025
 30
0.0000000000000008
 10
275.6557299923587
 20
207.4352896756741
 30
0.0000000000000008
 10
275.9475254690718
 20
207.2499023273547
 30
0.0000000000000008
 10
276.1598105487976
 20
207.1034170837117
 30
0.0000000000000008
 10
276.3526503601791
 20
206.9573355674096
 30
0.0000000000000008
  0
SPLINE
  5
102
330
1F
100
AcDbEntity
  8
1
  6
Continuous
 62
     1
370
    13
100
AcDbSpline
210
0.0
220
0.0
230
1.0
 70
     8
 71
     3
 72
    63
 73
    59
 74
     0
 42
0.000000001
 43
0.0000000001
 40
0.0
 40
0.0
 40
0.0
 40
0.0
 40
0.0312499999999991
 40
0.0312499999999991
 40
0.0624999999999983
 40
0.0624999999999983
 40
0.1249999999999961
 40
0.1249999999999961
 40
0.1328124999999963
 40
0.1328124999999963
 40
0.1406249999999964
 40
0.1562499999999966
 40
0.1562499999999966
 40
0.1874999999999971
 40
0.1874999999999971
 40
0.2499999999999978
 40
0.2499999999999978
 40
0.2812499999999981
 40
0.2812499999999981
 40
0.2968749999999982
 40
0.2968749999999982
 40
0.3124999999999983
 40
0.3124999999999983
 40
0.374999999999999
 40
0.374999999999999
 40
0.4374999999999996
 40
0.4374999999999996
 40
0.4687499999999999
 40
0.4687499999999999
 40
0.4765625
 40
0.4765625
 40
0.4843750000000001
 40
0.4843750000000001
 40
0.5000000000000002
 40
0.5000000000000002
 40
0.5625000000000009
 40
0.5625000000000009
 40
0.6250000000000017
 40
0.6250000000000017
 40
0.656250000000002
 40
0.656250000000002
 40
0.6875000000000023
 40
0.6875000000000023
 40
0.7500000000000029
 40
0.7500000000000029
 40
0.8125000000000036
 40
0.8125000000000036
 40
0.8281250000000033
 40
0.8281250000000033
 40
0.8437500000000031
 40
0.8437500000000031
 40
0.8750000000000027
 40
0.8750000000000027
 40
0.9375000000000016
 40
0.9375000000000016
 40
0.9687500000000008
 40
0.9687500000000008
 40
1.0
 40
1.0
 40
1.0
 40
1.0
 10
255.9732304051347
 20
214.888615771884
 30
-0.0000000000000004
 10
256.0715877646149
 20
214.7597556082693
 30
-0.0000000000000004
 10
256.1738138418077
 20
214.635729406848
 30
-0.0000000000000004
 10
256.3858680555488
 20
214.3966125188051
 30
-0.0000000000000004
 10
256.4956963614014
 20
214.2815225332805
 30
-0.0000000000000004
 10
256.8365098962199
 20
213.9487874104812
 30
-0.0000000000000004
 10
257.078782232358
 20
213.7436180655669
 30
-0.0000000000000004
 10
257.3686176085599
 20
213.5298050155814
 30
-0.0000000000000003
 10
257.4010860494183
 20
213.5062688994235
 30
-0.0000000000000003
 10
257.466323762163
 20
213.4597967272284
 30
-0.0000000000000003
 10
257.5646710844369
 20
213.3909577452527
 30
-0.0000000000000003
 10
257.6644818474724
 20
213.3246737053816
 30
-0.0000000000000003
 10
257.8660365944944
 20
213.1953881415915
 30
-0.0000000000000003
 10
258.0029823060202
 20
213.1135695043285
 30
-0.0000000000000003
 10
258.4214691220395
 20
212.8804323326144
 30
-0.0000000000000003
 10
258.7106334871888
 20
212.7413697642617
 30
-0.0000000000000003
 10
259.1598183765889
 20
212.5554277302093
 30
-0.0000000000000002
 10
259.3121263206141
 20
212.4972388045781
 30
-0.0000000000000002
 10
259.5445418599547
 20
212.4155457819143
 30
-0.0000000000000002
 10
259.6226730877464
 20
212.3892474242713
 30
-0.0000000000000002
 10
259.7802739342441
 20
212.3385108686675
 30
-0.0000000000000002
 10
259.8598490933956
 20
212.3140445110022
 30
-0.0000000000000002
 10
260.2585810175924
 20
212.1970885282423
 30
-0.0000000000000002
 10
260.5818454906084
 20
212.120095655404
 30
-0.0000000000000001
 10
261.2367516505935
 20
211.9969431841567
 30
-0.0000000000000001
 10
261.5683935659376
 20
211.950792290475
 30
-0.0000000000000001
 10
262.0722520261388
 20
211.9044092529122
 30
-0.0000000000000001
 10
262.2412733132211
 20
211.8927694865864
 30
0.0
 10
262.4539175644372
 20
211.8830738536253
 30
0.0
 10
262.496514853924
 20
211.8813777246544
 30
0.0
 10
262.5818473473482
 20
211.878474598945
 30
0.0
 10
262.6245977404196
 20
211.8772677197665
 30
0.0
 10
262.7526092248548
 20
211.8743935492743
 30
0.0
 10
262.8377740866126
 20
211.8734667200527
 30
0.0
 10
263.2627295590881
 20
211.8737097474483
 30
0.0
 10
263.5999223023035
 20
211.8894387174965
 30
0.0
 10
264.2689228254989
 20
211.9513896394075
 30
0.0000000000000001
 10
264.6007303001502
 20
211.9976102025454
 30
0.0000000000000001
 10
265.0943624227332
 20
212.09075017831
 30
0.0000000000000001
 10
265.2582250069514
 20
212.1257792822792
 30
0.0000000000000001
 10
265.5845601756964
 20
212.2041484413923
 30
0.0000000000000002
 10
265.7453853268266
 20
212.2470938789083
 30
0.0000000000000002
 10
266.2209476444323
 20
212.3871821630078
 30
0.0000000000000002
 10
266.5288352361861
 20
212.4955270442609
 30
0.0000000000000002
 10
267.1268015401982
 20
212.7434974044614
 30
0.0000000000000003
 10
267.4168803683211
 20
212.8831077308124
 30
0.0000000000000003
 10
267.7681961808558
 20
213.0793298924547
 30
0.0000000000000003
 10
267.8379019136055
 20
213.1196708574518
 30
0.0000000000000003
 10
267.9761352312109
 20
213.2025948803867
 30
0.0000000000000003
 10
268.0443228848382
 20
213.2449737935668
 30
0.0000000000000003
 10
268.2461365227161
 20
213.3748953108562
 30
0.0000000000000003
 10
268.3770157222512
 20
213.4652190865172
 30
0.0000000000000003
 10
268.7588695443698
 20
213.7477193893392
 30
0.0000000000000004
 10
268.9990986510235
 20
213.9513589275249
 30
0.0000000000000004
 10
269.3380442936078
 20
214.2824818288427
 30
0.0000000000000004
 10
269.4474502730894
 20
214.3971491291899
 30
0.0000000000000004
 10
269.6590103781367
 20
214.6357353026494
 30
0.0000000000000004
 10
269.7611647977007
 20
214.7596531934055
 30
0.0000000000000004
 10
269.8596003291721
 20
214.888615771884
 30
0.0000000000000004
  0
SPLINE
  5
103
330
1F
100
AcDbEntity
  8
1
  6
Continuous
 62
     1
370
    13
100
AcDbSpline
210
0.0
220
0.0
230
1.0
 70
     8
 71
     3
 72
    40
 73
    36
 74
     0
 42
0.000000001
 43
0.0000000001
 40
0.0
 40
0.0
 40
0.0
 40
0.0
 40
0.0624999999999985
 40
0.124999999999997
 40
0.1874999999999954
 40
0.1874999999999954
 40
0.2031249999999948
 40
0.2031249999999948
 40
0.2187499999999941
 40
0.2187499999999941
 40
0.2499999999999946
 40
0.2499999999999946
 40
0.2812499999999949
 40
0.2812499999999949
 40
0.3124999999999954
 40
0.3124999999999954
 40
0.3749999999999959
 40
0.3749999999999959
 40
0.4374999999999964
 40
0.4374999999999964
 40
0.499999999999997
 40
0.499999999999997
 40
0.5624999999999974
 40
0.5624999999999974
 40
0.624999999999998
 40
0.624999999999998
 40
0.7499999999999979
 40
0.7499999999999979
 40
0.7812499999999979
 40
0.7812499999999979
 40
0.8124999999999978
 40
0.8124999999999978
 40
0.8749999999999986
 40
0.8749999999999986
 40
1.0
 40
1.0
 40
1.0
 40
1.0
 10
269.8596003291721
 20
214.888615771884
 30
0.0000000000000004
 10
269.9351552798675
 20
214.9876019927418
 30
0.0000000000000004
 10
270.0806579180563
 20
215.1819766852659
 30
0.0000000000000004
 10
270.2824879840411
 20
215.462833977447
 30
0.0000000000000005
 10
270.4062355544283
 20
215.6427127024047
 30
0.0000000000000005
 10
270.4802139630571
 20
215.7526702010398
 30
0.0000000000000005
 10
270.4948413386253
 20
215.774537953608
 30
0.0000000000000005
 10
270.5237593580355
 20
215.8180200637125
 30
0.0000000000000005
 10
270.5380459657712
 20
215.839628637157
 30
0.0000000000000005
 10
270.5802459017874
 20
215.9038273177407
 30
0.0000000000000005
 10
270.6075529501775
 20
215.9458709313491
 30
0.0000000000000005
 10
270.660556300245
 20
216.0284228673883
 30
0.0000000000000005
 10
270.6862718683399
 20
216.0689640014639
 30
0.0000000000000005
 10
270.7357263964951
 20
216.1478226720764
 30
0.0000000000000005
 10
270.7595212321482
 20
216.1862261921101
 30
0.0000000000000005
 10
270.8282572176538
 20
216.2983973373125
 30
0.0000000000000005
 10
270.87055329855
 20
216.3691318367708
 30
0.0000000000000005
 10
270.9487792115458
 20
216.5025434244694
 30
0.0000000000000005
 10
270.9847075400856
 20
216.5652194543681
 30
0.0000000000000005
 10
271.0507908123046
 20
216.6823571868095
 30
0.0000000000000005
 10
271.0809446870014
 20
216.7368182522513
 30
0.0000000000000005
 10
271.1360172783316
 20
216.8372049814078
 30
0.0000000000000005
 10
271.1609639983038
 20
216.8831813503873
 30
0.0000000000000005
 10
271.2053170718709
 20
216.9646369516051
 30
0.0000000000000005
 10
271.224817800257
 20
217.0002839302508
 30
0.0000000000000005
 10
271.2767239934238
 20
217.0927067603417
 30
0.0000000000000005
 10
271.3025861405335
 20
217.1349915025725
 30
0.0000000000000005
 10
271.3277110706533
 20
217.1653088549718
 30
0.0000000000000005
 10
271.3323715395524
 20
217.170242980015
 30
0.0000000000000005
 10
271.3410403025258
 20
217.1778860148709
 30
0.0000000000000005
 10
271.34505328286
 20
217.1805953362755
 30
0.0000000000000005
 10
271.3561650334878
 20
217.1854197549418
 30
0.0000000000000005
 10
271.362358269342
 20
217.1842589669083
 30
0.0000000000000005
 10
271.3781997575484
 20
217.168681994366
 30
0.0000000000000005
 10
271.3851619190146
 20
217.1421894918436
 30
0.0000000000000005
 10
271.3901855709315
 20
217.1020052882489
 30
0.0000000000000005
  0
SPLINE
  5
104
330
1F
100
AcDbEntity
  8
1
  6
Continuous
 62
     1
370
    13
100
AcDbSpline
210
0.0
220
0.0
230
1.0
 70
     8
 71
     3
 72
    10
 73
     6
 74
     0
 42
0.000000001
 43
0.0000000001
 40
0.0
 40
0.0
 40
0.0
 40
0.0
 40
0.9189054579916629
 40
0.9189054579916629
 40
1.0
 40
1.0
 40
1.0
 40
1.0
 10
271.3901855709315
 20
217.1020052882489
 30
0.0000000000000005
 10
271.40800137495
 20
216.9594966296622
 30
0.0000000000000005
 10
271.4153747815846
 20
216.8446649127622
 30
0.0000000000000005
 10
271.4163933101414
 20
216.7445591789631
 30
0.0
 10
271.4164259633031
 20
216.7366189128459
 30
0.0
 10
271.416411772729
 20
216.7288526568118
 30
0.0
  0
SPLINE
  5
105
330
1F
100
AcDbEntity
  8
1
  6
Continuous
 62
     1
370
    13
100
AcDbSpline
210
0.0
220
0.0
230
1.0
 70
     8
 71
     3
 72
    16
 73
    12
 74
     0
 42
0.000000001
 43
0.0000000001
 40
0.0
 40
0.0
 40
0.0
 40
0.0
 40
0.1594840503296586
 40
0.1594840503296586
 40
0.3296290080508778
 40
0.3296290080508778
 40
0.499773965772097
 40
0.499773965772097
 40
0.6699189234933156
 40
0.6699189234933156
 40
1.0
 40
1.0
 40
1.0
 40
1.0
 10
271.3693762265383
 20
216.3977600001587
 30
0.0
 10
271.369389803108
 20
216.3977878177047
 30
0.0
 10
271.3702818458294
 20
216.4000167370047
 30
0.0
 10
271.3737714620915
 20
216.4093795255847
 30
0.0000000000000001
 10
271.3764764466434
 20
216.4168347985975
 30
0.0000000000000001
 10
271.3830894170736
 20
216.4377463922988
 30
0.0000000000000001
 10
271.3869932689315
 20
216.4512081783754
 30
0.0000000000000001
 10
271.3950896923598
 20
216.4852753248252
 30
-0.0000000000000004
 10
271.399278039426
 20
216.5058861427694
 30
-0.0000000000000004
 10
271.4104169073073
 20
216.5789683255598
 30
-0.0000000000000004
 10
271.4162437920438
 20
216.6432045262274
 30
-0.0000000000000004
 10
271.4164116331642
 20
216.7285317727917
 30
0.0
  0
SPLINE
  5
106
330
1F
100
AcDbEntity
  8
1
  6
Continuous
 62
     1
370
    13
100
AcDbSpline
210
0.0
220
0.0
230
1.0
 70
     8
 71
     3
 72
    18
 73
    14
 74
     0
 42
0.000000001
 43
0.0000000001
 40
0.0
 40
0.0
 40
0.0
 40
0.0
 40
0.3246034107513247
 40
0.3246034107513247
 40
0.4962375324347713
 40
0.4962375324347713
 40
0.6678716541182179
 40
0.6678716541182179
 40
0.7536887149599415
 40
0.7536887149599415
 40
0.8395057758016649
 40
0.8395057758016649
 40
1.0
 40
1.0
 40
1.0
 40
1.0
 10
254.4164408411601
 20
216.722443848143
 30
0.0
 10
254.4168663214638
 20
216.6402677446426
 30
0.0000000000000004
 10
254.4225749770759
 20
216.5779572696929
 30
0.0000000000000004
 10
254.4335344462981
 20
216.5059815155526
 30
0.0000000000000004
 10
254.4377274627578
 20
216.4853363999473
 30
0.0000000000000004
 10
254.4458352233503
 20
216.4512136815137
 30
-0.0000000000000001
 10
254.4497456618832
 20
216.4377305120657
 30
-0.0000000000000001
 10
254.4547125741897
 20
216.4220273147015
 30
-0.0000000000000001
 10
254.4562200328624
 20
216.4175491069864
 30
-0.0000000000000001
 10
254.4588505664014
 20
216.4099985449467
 30
-0.0000000000000001
 10
254.4599737503144
 20
216.4069253447196
 30
-0.0000000000000001
 10
254.4625550324923
 20
216.400001381496
 30
0.0
 10
254.4634417189968
 20
216.3977852978768
 30
0.0
 10
254.4634544761577
 20
216.397759855448
 30
0.0
  0
SPLINE
  5
107
330
1F
100
AcDbEntity
  8
1
  6
Continuous
 62
     1
370
    13
100
AcDbSpline
210
0.0
220
0.0
230
1.0
 70
     8
 71
     3
 72
    14
 73
    10
 74
     0
 42
0.000000001
 43
0.0000000001
 40
0.0
 40
0.0
 40
0.0
 40
0.0
 40
0.082251901762689
 40
0.082251901762689
 40
0.5411259508813445
 40
0.5411259508813445
 40
0.7705629754406722
 40
0.7705629754406722
 40
1.0
 40
1.0
 40
1.0
 40
1.0
 10
254.4164203488617
 20
216.7281141867551
 30
-0.0000000000000001
 10
254.416402970039
 20
216.7359947527027
 30
-0.0000000000000001
 10
254.4164338408204
 20
216.7440554771451
 30
-0.0000000000000002
 10
254.4169758144868
 20
216.798297701871
 30
-0.0000000000000005
 10
254.4190358072516
 20
216.8500225758211
 30
-0.0000000000000005
 10
254.425318072054
 20
216.9371741729547
 30
-0.0000000000000005
 10
254.4279445916264
 20
216.9678265511977
 30
-0.0000000000000005
 10
254.4343798683765
 20
217.0324169637268
 30
-0.0000000000000005
 10
254.4381884682903
 20
217.0663561736973
 30
-0.0000000000000005
 10
254.4426451633752
 20
217.1020052882489
 30
-0.0000000000000005
  0
SPLINE
  5
108
330
1F
100
AcDbEntity
  8
1
  6
Continuous
 62
     1
370
    13
100
AcDbSpline
210
0.0
220
0.0
230
1.0
 70
     8
 71
     3
 72
    40
 73
    36
 74
     0
 42
0.000000001
 43
0.0000000001
 40
0.0
 40
0.0
 40
0.0
 40
0.0
 40
0.1250000000000005
 40
0.1250000000000005
 40
0.2500000000000011
 40
0.2500000000000011
 40
0.281250000000001
 40
0.281250000000001
 40
0.312500000000001
 40
0.3750000000000009
 40
0.3750000000000009
 40
0.4375000000000009
 40
0.4375000000000009
 40
0.5000000000000009
 40
0.5000000000000009
 40
0.5156250000000011
 40
0.5156250000000011
 40
0.5312500000000011
 40
0.5312500000000011
 40
0.5625000000000006
 40
0.5625000000000006
 40
0.6250000000000011
 40
0.6250000000000011
 40
0.6875000000000016
 40
0.6875000000000016
 40
0.750000000000002
 40
0.750000000000002
 40
0.7656250000000019
 40
0.7656250000000019
 40
0.7812500000000018
 40
0.8125000000000011
 40
0.8125000000000011
 40
0.8750000000000008
 40
0.9375000000000004
 40
1.0
 40
1.0
 40
1.0
 40
1.0
 10
254.4426451633752
 20
217.1020052882489
 30
-0.0000000000000005
 10
254.4476735615314
 20
217.1422274570229
 30
-0.0000000000000005
 10
254.4546378869951
 20
217.1686340060228
 30
-0.0000000000000005
 10
254.4756580500468
 20
217.1894125193157
 30
-0.0000000000000005
 10
254.4896906133638
 20
217.1838102269404
 30
-0.0000000000000005
 10
254.5148665095572
 20
217.1535756426505
 30
-0.0000000000000005
 10
254.5202938454969
 20
217.1463574022875
 30
-0.0000000000000005
 10
254.5320114761872
 20
217.1295219689201
 30
-0.0000000000000005
 10
254.5508037521057
 20
217.1007875857267
 30
-0.0000000000000005
 10
254.5736019679715
 20
217.0615632197119
 30
-0.0000000000000005
 10
254.6082760892779
 20
216.9998072466872
 30
-0.0000000000000005
 10
254.627750469056
 20
216.9642024324313
 30
-0.0000000000000005
 10
254.6717912753614
 20
216.8833195519677
 30
-0.0000000000000005
 10
254.6963560937926
 20
216.838043620785
 30
-0.0000000000000005
 10
254.730840145374
 20
216.7751796851327
 30
-0.0000000000000005
 10
254.7379262691147
 20
216.7622930059884
 30
-0.0000000000000005
 10
254.7524938737842
 20
216.7358842801346
 30
-0.0000000000000005
 10
254.7599754019988
 20
216.7223623385201
 30
-0.0000000000000005
 10
254.7829053844608
 20
216.6810708639388
 30
-0.0000000000000005
 10
254.7988793576772
 20
216.6525030201939
 30
-0.0000000000000005
 10
254.8489557681544
 20
216.5637537920297
 30
-0.0000000000000005
 10
254.8852108824709
 20
216.5005323292403
 30
-0.0000000000000005
 10
254.9639897089456
 20
216.3662467183697
 30
-0.0000000000000005
 10
255.0065121406697
 20
216.2951832205772
 30
-0.0000000000000005
 10
255.0984236001766
 20
216.1452949474245
 30
-0.0000000000000005
 10
255.1478108116077
 20
216.0664714409127
 30
-0.0000000000000005
 10
255.2142842352115
 20
215.9630079239008
 30
-0.0000000000000005
 10
255.2277961195266
 20
215.9420997105091
 30
-0.0000000000000005
 10
255.2551240142279
 20
215.9000631035002
 30
-0.0000000000000005
 10
255.2966289133751
 20
215.8365891365103
 30
-0.0000000000000005
 10
255.3396738945422
 20
215.7718897272584
 30
-0.0000000000000005
 10
255.4278234584178
 20
215.6409247455296
 30
-0.0000000000000005
 10
255.5508456628395
 20
215.4621387973761
 30
-0.0000000000000005
 10
255.7520499097515
 20
215.1821508754788
 30
-0.0000000000000004
 10
255.8975459372747
 20
214.987771676059
 30
-0.0000000000000004
 10
255.9732304051347
 20
214.888615771884
 30
-0.0000000000000004
  0
SPLINE
  5
109
330
1F
100
AcDbEntity
  8
1
  6
Continuous
 62
     1
370
    18
100
AcDbSpline
210
0.0
220
0.0
230
1.0
 70
    24
 71
     1
 72
     4
 73
     2
 74
     0
 42
0.000000001
 43
0.0000000001
 40
0.0
 40
0.0
 40
1.0
 40
1.0
 10
280.0740788466135
 20
203.609273186757
 30
-0.0000000000000007
 10
280.135720604359
 20
203.6088287760328
 30
-0.0000000000000007
  0
SPLINE
  5
10A
330
1F
100
AcDbEntity
  8
1
  6
Continuous
 62
     1
370
    13
100
AcDbSpline
210
0.0
220
0.0
230
1.0
 70
     8
 71
     3
 72
    18
 73
    14
 74
     0
 42
0.000000001
 43
0.0000000001
 40
0.0
 40
0.0
 40
0.0
 40
0.0
 40
0.1250000000000005
 40
0.1250000000000005
 40
0.1875000000000008
 40
0.1875000000000008
 40
0.2500000000000011
 40
0.2500000000000011
 40
0.5000000000000013
 40
0.5000000000000013
 40
0.7500000000000007
 40
0.7500000000000007
 40
1.0
 40
1.0
 40
1.0
 40
1.0
 10
124.6351955042557
 20
69.99166486595405
 30
0.0000000000000007
 10
124.8783220961025
 20
69.99166486595405
 30
0.0000000000000007
 10
125.1212828256323
 20
69.98703281422105
 30
0.0000000000000007
 10
125.4854402768558
 20
69.97216341125242
 30
0.0000000000000007
 10
125.6067789385248
 20
69.9658900303767
 30
0.0000000000000007
 10
125.8493572730648
 20
69.95057879962964
 30
0.0000000000000007
 10
125.9706612444845
 20
69.94153372330712
 30
0.0000000000000007
 10
126.5751293951614
 20
69.88927969952177
 30
0.0000000000000007
 10
127.0533213085334
 20
69.82486211382039
 30
0.0000000000000007
 10
127.9981634155961
 20
69.64753581670561
 30
0.0000000000000007
 10
128.4648305669104
 20
69.53469835067723
 30
0.0000000000000007
 10
129.3859791685753
 20
69.25782668419603
 30
0.0000000000000007
 10
129.8404714121933
 20
69.0938378303388
 30
0.0000000000000007
 10
130.288393768045
 20
68.9022463953769
 30
0.0000000000000007
  0
SPLINE
  5
10B
330
1F
100
AcDbEntity
  8
1
  6
Continuous
 62
     1
370
    13
100
AcDbSpline
210
0.0
220
0.0
230
1.0
 70
     8
 71
     3
 72
    21
 73
    17
 74
     0
 42
0.000000001
 43
0.0000000001
 40
0.0
 40
0.0
 40
0.0
 40
0.0
 40
0.0624999999999981
 40
0.0937499999999976
 40
0.0937499999999976
 40
0.1249999999999971
 40
0.1249999999999971
 40
0.2499999999999975
 40
0.2499999999999975
 40
0.4999999999999983
 40
0.4999999999999983
 40
0.749999999999999
 40
0.749999999999999
 40
0.8749999999999996
 40
0.8749999999999996
 40
1.0
 40
1.0
 40
1.0
 40
1.0
 10
130.288393768045
 20
34.39088925337806
 30
-0.0000000000000007
 10
130.1761346145686
 20
34.34287224323965
 30
-0.0000000000000007
 10
130.0067694490826
 20
34.27330286671476
 30
-0.0000000000000007
 10
129.8359539158074
 20
34.20738176523166
 30
-0.0000000000000007
 10
129.7217558619464
 20
34.16424189173044
 30
-0.0000000000000007
 10
129.6644686094859
 20
34.14306588666742
 30
-0.0000000000000007
 10
129.3777249751668
 20
34.03937270648461
 30
-0.0000000000000007
 10
129.1471688988051
 20
33.96333562229422
 30
-0.0000000000000007
 10
128.4521755060189
 20
33.75503344884814
 30
-0.0000000000000007
 10
127.9844164176431
 20
33.64255723296498
 30
-0.0000000000000007
 10
127.0407103986487
 20
33.46638243425494
 30
-0.0000000000000007
 10
126.5647514678207
 20
33.40275534056811
 30
-0.0000000000000007
 10
125.8451823779373
 20
33.34085856912461
 30
-0.0000000000000007
 10
125.6043887275563
 20
33.32581003528512
 30
-0.0000000000000007
 10
125.1210557026315
 20
33.30611281290063
 30
-0.0000000000000007
 10
124.8785152103972
 20
33.30147078280088
 30
-0.0000000000000007
 10
124.6351955042536
 20
33.3014707828009
 30
-0.0000000000000007
  0
SPLINE
  5
10C
330
1F
100
AcDbEntity
  8
1
  6
Continuous
 62
     1
370
    13
100
AcDbSpline
210
0.0
220
0.0
230
1.0
 70
     8
 71
     3
 72
    18
 73
    14
 74
     0
 42
0.000000001
 43
0.0000000001
 40
0.0
 40
0.0
 40
0.0
 40
0.0
 40
0.25
 40
0.25
 40
0.5
 40
0.5
 40
0.75
 40
0.75
 40
0.8750000000000002
 40
0.8750000000000002
 40
0.9375000000000001
 40
0.9375000000000001
 40
1.0
 40
1.0
 40
1.0
 40
1.0
 10
124.6351955042538
 20
36.89695088012994
 30
-0.0000000000000009
 10
124.9889629705474
 20
36.96036062934669
 30
-0.0000000000000009
 10
125.3381491143992
 20
37.03313591683482
 30
-0.0000000000000009
 10
126.0274792991557
 20
37.20076270143498
 30
0.0000000000000009
 10
126.3676140845505
 20
37.29561888004726
 30
0.0000000000000009
 10
127.0384442482665
 20
37.51052718025598
 30
0.0000000000000009
 10
127.3691377790869
 20
37.63056849885265
 30
0.0000000000000009
 10
127.8575575225531
 20
37.83175557161304
 30
0.0000000000000008
 10
128.0190915726312
 20
37.90233883232878
 30
0.0000000000000008
 10
128.2593923429103
 20
38.01379237520582
 30
0.0000000000000008
 10
128.3391532339145
 20
38.05187245892486
 30
0.0000000000000008
 10
128.4976374563894
 20
38.12976494332668
 30
0.0000000000000008
 10
128.576405006489
 20
38.16959748051643
 30
0.0000000000000008
 10
128.6546894746565
 20
38.21033283135049
 30
0.0000000000000008
  0
SPLINE
  5
10D
330
1F
100
AcDbEntity
  8
1
  6
Continuous
 62
     1
370
    13
100
AcDbSpline
210
0.0
220
0.0
230
1.0
 70
     8
 71
     3
 72
    14
 73
    10
 74
     0
 42
0.000000001
 43
0.0000000001
 40
0.0
 40
0.0
 40
0.0
 40
0.0
 40
0.4999999999999984
 40
0.4999999999999984
 40
0.6249999999999979
 40
0.6249999999999979
 40
0.7499999999999972
 40
0.7499999999999972
 40
1.0
 40
1.0
 40
1.0
 40
1.0
 10
128.6546894746557
 20
38.21033283135176
 30
0.0000000000000008
 10
129.0254633119722
 20
38.40326512937609
 30
0.0000000000000008
 10
129.3840096281268
 20
38.61544797440553
 30
0.0000000000000008
 10
129.8149689638961
 20
38.90665942759787
 30
0.0000000000000008
 10
129.9002991356047
 20
38.96620091526876
 30
0.0000000000000008
 10
130.0691843450359
 20
39.08793438687625
 30
0.0000000000000008
 10
130.1527812880386
 20
39.15015884864383
 30
0.0000000000000008
 10
130.4005100010419
 20
39.34064792978937
 30
0.0000000000000008
 10
130.5614527895779
 20
39.47261469098579
 30
0.0000000000000007
 10
130.7180009055228
 20
39.6097089028662
 30
0.0000000000000007
  0
SPLINE
  5
10E
330
1F
100
AcDbEntity
  8
1
  6
Continuous
 62
     1
370
    13
100
AcDbSpline
210
0.0
220
0.0
230
1.0
 70
     8
 71
     3
 72
    18
 73
    14
 74
     0
 42
0.000000001
 43
0.0000000001
 40
0.0
 40
0.0
 40
0.0
 40
0.0
 40
0.2500000000000004
 40
0.2500000000000004
 40
0.5000000000000009
 40
0.5000000000000009
 40
0.7500000000000013
 40
0.7500000000000013
 40
0.875000000000001
 40
0.875000000000001
 40
0.9375000000000006
 40
0.9375000000000006
 40
1.0
 40
1.0
 40
1.0
 40
1.0
 10
115.7186785865038
 20
66.396184768625
 30
0.0000000000000009
 10
115.3649111202102
 20
66.33277501940827
 30
0.0000000000000009
 10
115.0157249763584
 20
66.25999973192013
 30
0.0000000000000009
 10
114.3263947916019
 20
66.09237294731997
 30
-0.0000000000000009
 10
113.9862600062071
 20
65.9975167687077
 30
-0.0000000000000009
 10
113.3154298424911
 20
65.78260846849898
 30
-0.0000000000000009
 10
112.9847363116707
 20
65.66256714990232
 30
-0.0000000000000009
 10
112.4963165682045
 20
65.46138007714192
 30
-0.0000000000000008
 10
112.3347825181264
 20
65.39079681642617
 30
-0.0000000000000008
 10
112.0944817478473
 20
65.27934327354913
 30
-0.0000000000000008
 10
112.0147208568431
 20
65.2412631898301
 30
-0.0000000000000008
 10
111.8562366343682
 20
65.16337070542826
 30
-0.0000000000000008
 10
111.7774690842686
 20
65.12353816823853
 30
-0.0000000000000008
 10
111.6991846161011
 20
65.08280281740447
 30
-0.0000000000000008
  0
SPLINE
  5
10F
330
1F
100
AcDbEntity
  8
1
  6
Continuous
 62
     1
370
    13
100
AcDbSpline
210
0.0
220
0.0
230
1.0
 70
     8
 71
     3
 72
    14
 73
    10
 74
     0
 42
0.000000001
 43
0.0000000001
 40
0.0
 40
0.0
 40
0.0
 40
0.0
 40
0.500000000000003
 40
0.500000000000003
 40
0.6250000000000029
 40
0.6250000000000029
 40
0.7500000000000027
 40
0.7500000000000027
 40
1.0
 40
1.0
 40
1.0
 40
1.0
 10
111.6991846161019
 20
65.08280281740319
 30
-0.0000000000000008
 10
111.3284107787854
 20
64.88987051937887
 30
-0.0000000000000008
 10
110.9698644626308
 20
64.67768767434943
 30
-0.0000000000000008
 10
110.5389051268615
 20
64.38647622115708
 30
-0.0000000000000008
 10
110.4535749551529
 20
64.3269347334862
 30
-0.0000000000000008
 10
110.2846897457217
 20
64.2052012618787
 30
-0.0000000000000008
 10
110.201092802719
 20
64.14297680011113
 30
-0.0000000000000008
 10
109.9533640897157
 20
63.95248771896558
 30
-0.0000000000000008
 10
109.7924213011797
 20
63.82052095776916
 30
-0.0000000000000007
 10
109.6358731852348
 20
63.68342674588875
 30
-0.0000000000000007
  0
SPLINE
  5
110
330
1F
100
AcDbEntity
  8
1
  6
Continuous
 62
     1
370
    13
100
AcDbSpline
210
0.0
220
0.0
230
1.0
 70
     8
 71
     3
 72
    14
 73
    10
 74
     0
 42
0.000000001
 43
0.0000000001
 40
0.0
 40
0.0
 40
0.0
 40
0.0
 40
0.2500000000000004
 40
0.2500000000000004
 40
0.3750000000000006
 40
0.3750000000000006
 40
0.5000000000000008
 40
0.5000000000000008
 40
1.0
 40
1.0
 40
1.0
 40
1.0
 10
130.7180009055228
 20
63.68342674588877
 30
-0.0000000000000007
 10
130.5615450859366
 20
63.82044013088421
 30
-0.0000000000000007
 10
130.4008101619474
 20
63.95223580593583
 30
-0.0000000000000008
 10
130.1535854770927
 20
64.1423689174742
 30
-0.0000000000000008
 10
130.0701562194186
 20
64.20448534034226
 30
-0.0000000000000008
 10
129.9012993677916
 20
64.32622897010887
 30
-0.0000000000000008
 10
129.8158323835494
 20
64.38588244958277
 30
-0.0000000000000008
 10
129.3840849178358
 20
64.6776779262959
 30
-0.0000000000000008
 10
129.0252855727971
 20
64.88996300602176
 30
-0.0000000000000008
 10
128.6546894746557
 20
65.0828028174032
 30
-0.0000000000000008
  0
SPLINE
  5
111
330
1F
100
AcDbEntity
  8
1
  6
Continuous
 62
     1
370
    13
100
AcDbSpline
210
0.0
220
0.0
230
1.0
 70
     8
 71
     3
 72
    18
 73
    14
 74
     0
 42
0.000000001
 43
0.0000000001
 40
0.0
 40
0.0
 40
0.0
 40
0.0
 40
0.2500000000000001
 40
0.2500000000000001
 40
0.5000000000000007
 40
0.5000000000000007
 40
0.7500000000000012
 40
0.7500000000000012
 40
0.812500000000001
 40
0.812500000000001
 40
0.8750000000000009
 40
0.8750000000000009
 40
1.0
 40
1.0
 40
1.0
 40
1.0
 10
111.6991846161019
 20
38.21033283135176
 30
0.0000000000000008
 10
112.0118552291088
 20
38.04763456674736
 30
0.0000000000000008
 10
112.3307639771977
 20
37.90007338604549
 30
0.0000000000000008
 10
112.9800016704365
 20
37.63239585334128
 30
0.0000000000000009
 10
113.3103336909315
 20
37.51229616704616
 30
0.0000000000000009
 10
113.9817090000738
 20
37.29694241854072
 30
0.0000000000000009
 10
114.3227501907145
 20
37.20169892126463
 30
0.0000000000000009
 10
114.7554981496602
 20
37.09640386891115
 30
-0.0000000000000009
 10
114.8423479916493
 20
37.07603813835391
 30
-0.0000000000000009
 10
115.016423136647
 20
37.03668935918347
 30
-0.0000000000000009
 10
115.1036800532805
 20
37.01769850425265
 30
-0.0000000000000009
 10
115.3661112536625
 20
36.9626876575988
 30
-0.0000000000000009
 10
115.5419445951827
 20
36.9286289148155
 30
-0.0000000000000009
 10
115.7186785865019
 20
36.89695088013062
 30
-0.0000000000000009
  0
SPLINE
  5
112
330
1F
100
AcDbEntity
  8
1
  6
Continuous
 62
     1
370
    13
100
AcDbSpline
210
0.0
220
0.0
230
1.0
 70
     8
 71
     3
 72
    21
 73
    17
 74
     0
 42
0.000000001
 43
0.0000000001
 40
0.0
 40
0.0
 40
0.0
 40
0.0
 40
0.0625000000000019
 40
0.0937500000000029
 40
0.0937500000000029
 40
0.1250000000000038
 40
0.1250000000000038
 40
0.2500000000000033
 40
0.2500000000000033
 40
0.5000000000000024
 40
0.5000000000000024
 40
0.7500000000000012
 40
0.7500000000000012
 40
0.8750000000000007
 40
0.8750000000000007
 40
1.0
 40
1.0
 40
1.0
 40
1.0
 10
110.0654803227126
 20
68.9022463953769
 30
0.0000000000000007
 10
110.1777394761889
 20
68.95026340551529
 30
0.0000000000000007
 10
110.3471046416749
 20
69.01983278204014
 30
0.0000000000000007
 10
110.51792017495
 20
69.08575388352324
 30
0.0000000000000007
 10
110.632118228811
 20
69.12889375702446
 30
0.0000000000000007
 10
110.6894054812715
 20
69.15006976208745
 30
0.0000000000000007
 10
110.9761491155905
 20
69.25376294227024
 30
0.0000000000000007
 10
111.2067051919521
 20
69.32980002646059
 30
0.0000000000000007
 10
111.9016985847381
 20
69.53810219990665
 30
0.0000000000000007
 10
112.3694576731137
 20
69.6505784157898
 30
0.0000000000000007
 10
113.3131636921078
 20
69.82675321449985
 30
0.0000000000000007
 10
113.7891226229356
 20
69.89038030818669
 30
0.0000000000000007
 10
114.5086917128188
 20
69.95227707963022
 30
0.0000000000000007
 10
114.7494853631997
 20
69.96732561346974
 30
0.0000000000000007
 10
115.2328183881243
 20
69.98702283585428
 30
0.0000000000000007
 10
115.4753588803605
 20
69.99166486595408
 30
0.0000000000000007
 10
115.718678586504
 20
69.99166486595405
 30
0.0000000000000007
  0
SPLINE
  5
113
330
1F
100
AcDbEntity
  8
1
  6
Continuous
 62
     1
370
    13
100
AcDbSpline
210
0.0
220
0.0
230
1.0
 70
     8
 71
     3
 72
    18
 73
    14
 74
     0
 42
0.000000001
 43
0.0000000001
 40
0.0
 40
0.0
 40
0.0
 40
0.0
 40
0.2499999999999997
 40
0.2499999999999997
 40
0.4999999999999993
 40
0.4999999999999993
 40
0.749999999999999
 40
0.749999999999999
 40
0.8124999999999992
 40
0.8124999999999992
 40
0.8749999999999994
 40
0.8749999999999994
 40
1.0
 40
1.0
 40
1.0
 40
1.0
 10
128.6546894746557
 20
65.0828028174032
 30
-0.0000000000000008
 10
128.3420188616487
 20
65.24550108200759
 30
-0.0000000000000008
 10
128.0231101135598
 20
65.39306226270946
 30
-0.0000000000000008
 10
127.3738724203211
 20
65.66073979541368
 30
-0.0000000000000009
 10
127.0435403998261
 20
65.7808394817088
 30
-0.0000000000000009
 10
126.3721650906838
 20
65.99619323021423
 30
-0.0000000000000009
 10
126.031123900043
 20
66.09143672749032
 30
-0.0000000000000009
 10
125.5983759410974
 20
66.1967317798438
 30
0.0000000000000009
 10
125.5115260991083
 20
66.21709751040105
 30
0.0000000000000009
 10
125.3374509541105
 20
66.2564462895715
 30
0.0000000000000009
 10
125.250194037477
 20
66.2754371445023
 30
0.0000000000000009
 10
124.987762837095
 20
66.33044799115616
 30
0.0000000000000009
 10
124.8119294955749
 20
66.36450673393946
 30
0.0000000000000009
 10
124.6351955042557
 20
66.39618476862432
 30
0.0000000000000009
  0
SPLINE
  5
114
330
1F
100
AcDbEntity
  8
1
  6
Continuous
 62
     1
370
    13
100
AcDbSpline
210
0.0
220
0.0
230
1.0
 70
     8
 71
     3
 72
    18
 73
    14
 74
     0
 42
0.000000001
 43
0.0000000001
 40
0.0
 40
0.0
 40
0.0
 40
0.0
 40
0.1249999999999999
 40
0.1249999999999999
 40
0.1874999999999998
 40
0.1874999999999998
 40
0.2499999999999998
 40
0.2499999999999998
 40
0.4999999999999999
 40
0.4999999999999999
 40
0.75
 40
0.75
 40
1.0
 40
1.0
 40
1.0
 40
1.0
 10
115.7186785865019
 20
33.3014707828009
 30
-0.0000000000000007
 10
115.4755519946551
 20
33.3014707828009
 30
-0.0000000000000007
 10
115.2325912651253
 20
33.3061028345339
 30
-0.0000000000000007
 10
114.8684338139018
 20
33.32097223750253
 30
-0.0000000000000007
 10
114.7470951522328
 20
33.32724561837824
 30
-0.0000000000000007
 10
114.5045168176928
 20
33.34255684912532
 30
-0.0000000000000007
 10
114.3832128462731
 20
33.35160192544785
 30
-0.0000000000000007
 10
113.7787446955962
 20
33.40385594923318
 30
-0.0000000000000007
 10
113.3005527822242
 20
33.46827353493457
 30
-0.0000000000000007
 10
112.3557106751615
 20
33.64559983204933
 30
-0.0000000000000007
 10
111.8890435238471
 20
33.75843729807772
 30
-0.0000000000000007
 10
110.9678949221823
 20
34.03530896455892
 30
-0.0000000000000007
 10
110.5134026785643
 20
34.19929781841616
 30
-0.0000000000000007
 10
110.0654803227126
 20
34.39088925337805
 30
-0.0000000000000007
  0
SPLINE
  5
115
330
1F
100
AcDbEntity
  8
1
  6
Continuous
 62
     1
370
    13
100
AcDbSpline
210
0.0
220
0.0
230
1.0
 70
     8
 71
     3
 72
    14
 73
    10
 74
     0
 42
0.000000001
 43
0.0000000001
 40
0.0
 40
0.0
 40
0.0
 40
0.0
 40
0.2500000000000009
 40
0.2500000000000009
 40
0.3750000000000006
 40
0.3750000000000006
 40
0.5000000000000003
 40
0.5000000000000003
 40
1.0
 40
1.0
 40
1.0
 40
1.0
 10
109.6358731852348
 20
39.60970890286621
 30
0.0000000000000007
 10
109.7923290048209
 20
39.47269551787076
 30
0.0000000000000007
 10
109.9530639288101
 20
39.34089984281913
 30
0.0000000000000008
 10
110.2002886136649
 20
39.15076673128077
 30
0.0000000000000008
 10
110.283717871339
 20
39.08865030841271
 30
0.0000000000000008
 10
110.4525747229659
 20
38.9669066786461
 30
0.0000000000000008
 10
110.5380417072081
 20
38.9072531991722
 30
0.0000000000000008
 10
110.9697891729217
 20
38.61545772245906
 30
0.0000000000000008
 10
111.3285885179604
 20
38.4031726427332
 30
0.0000000000000008
 10
111.6991846161019
 20
38.21033283135176
 30
0.0000000000000008
  0
SPLINE
  5
116
330
1F
100
AcDbEntity
  8
1
  6
Continuous
 62
     1
370
    13
100
AcDbSpline
210
0.0
220
0.0
230
1.0
 70
     8
 71
     3
 72
    45
 73
    41
 74
     0
 42
0.000000001
 43
0.0000000001
 40
0.0
 40
0.0
 40
0.0
 40
0.0
 40
0.086219284455005
 40
0.086219284455005
 40
0.1242934809360473
 40
0.1242934809360473
 40
0.1623676774170896
 40
0.1623676774170896
 40
0.2385160703791769
 40
0.2385160703791769
 40
0.3146644633412642
 40
0.3146644633412642
 40
0.3908128563033515
 40
0.3908128563033515
 40
0.4288870527843948
 40
0.4288870527843948
 40
0.466961249265438
 40
0.466961249265438
 40
0.5431096422275233
 40
0.5431096422275233
 40
0.5811838387085659
 40
0.5811838387085659
 40
0.6192580351896085
 40
0.6192580351896085
 40
0.6954064281516937
 40
0.6954064281516937
 40
0.714443526392214
 40
0.714443526392214
 40
0.7334806246327342
 40
0.7715548211137728
 40
0.7715548211137728
 40
0.847703214075852
 40
0.847703214075852
 40
0.8667403123163707
 40
0.8667403123163707
 40
0.8857774105568891
 40
0.8857774105568891
 40
0.9238516070379263
 40
0.9238516070379263
 40
1.0
 40
1.0
 40
1.0
 40
1.0
 10
133.6655506393167
 20
43.14319771455475
 30
0.0000000000000005
 10
133.6305968012919
 20
43.1148079349183
 30
0.0000000000000005
 10
133.5928768575436
 20
43.08777896903175
 30
0.0000000000000005
 10
133.5343176766516
 20
43.05073817651762
 30
0.0000000000000005
 10
133.5158087303106
 20
43.03965099236832
 30
0.0000000000000005
 10
133.4776027403492
 20
43.01798632641095
 30
0.0000000000000005
 10
133.4579554779312
 20
43.00743863486078
 30
0.0000000000000005
 10
133.3975753787669
 20
42.97673560154482
 30
0.0000000000000005
 10
133.3553193080012
 20
42.95746995046362
 30
0.0000000000000005
 10
133.2665531548477
 20
42.92110972521534
 30
0.0000000000000005
 10
133.2200449514225
 20
42.90401604615282
 30
0.0000000000000005
 10
133.1223441475059
 20
42.87171806329896
 30
0.0000000000000005
 10
133.0711549744371
 20
42.85651523449003
 30
0.0000000000000005
 10
132.9903400181118
 20
42.83485514389702
 30
0.0000000000000005
 10
132.962727499054
 20
42.82782503397283
 30
0.0000000000000005
 10
132.9060316200339
 20
42.8140865452205
 30
0.0000000000000005
 10
132.8771207404269
 20
42.80742045557515
 30
0.0000000000000005
 10
132.7888066715604
 20
42.78796339819711
 30
0.0000000000000005
 10
132.7277474226992
 20
42.77569822710637
 30
0.0000000000000005
 10
132.6324313682328
 20
42.75783436563922
 30
0.0000000000000005
 10
132.6000363703571
 20
42.75196768971514
 30
0.0000000000000005
 10
132.5339001877287
 20
42.74030718652791
 30
0.0000000000000005
 10
132.5001068756462
 20
42.73450466014712
 30
0.0000000000000005
 10
132.3968691686106
 20
42.71708931262353
 30
0.0000000000000005
 10
132.3263165004429
 20
42.70559356762815
 30
0.0000000000000005
 10
132.2358175302728
 20
42.69076892656254
 30
0.0000000000000005
 10
132.2176132286888
 20
42.68778288632521
 30
0.0000000000000005
 10
132.1812427304763
 20
42.6817949570147
 30
0.0000000000000005
 10
132.1266457577519
 20
42.67277339413306
 30
0.0000000000000005
 10
132.0719364226056
 20
42.66357362840515
 30
0.0000000000000006
 10
131.9623953440022
 20
42.64479709388507
 30
0.0000000000000006
 10
131.8892056623536
 20
42.63177027471475
 30
0.0000000000000006
 10
131.7975928215109
 20
42.6144838383009
 30
0.0000000000000006
 10
131.7792638946574
 20
42.61097690950241
 30
0.0000000000000006
 10
131.7425949687484
 20
42.60385660571615
 30
0.0000000000000006
 10
131.7242489638344
 20
42.60024178348051
 30
0.0000000000000006
 10
131.6696008175401
 20
42.58931040270898
 30
0.0000000000000006
 10
131.6335507412354
 20
42.5818801048101
 30
0.0000000000000006
 10
131.5264597793707
 20
42.55912315552461
 30
0.0000000000000006
 10
131.4564764553528
 20
42.54332626108313
 30
0.0000000000000006
 10
131.3876930190997
 20
42.52686853273261
 30
0.0000000000000006
  0
SPLINE
  5
117
330
1F
100
AcDbEntity
  8
1
  6
Continuous
 62
     1
370
    13
100
AcDbSpline
210
0.0
220
0.0
230
1.0
 70
     8
 71
     3
 72
    46
 73
    42
 74
     0
 42
0.000000001
 43
0.0000000001
 40
0.0
 40
0.0
 40
0.0
 40
0.0
 40
0.0602977763873621
 40
0.0602977763873621
 40
0.0994520357045534
 40
0.0994520357045534
 40
0.1386062950217448
 40
0.1386062950217448
 40
0.2169148136561245
 40
0.2169148136561245
 40
0.2952233322905042
 40
0.2952233322905042
 40
0.3735318509248841
 40
0.3735318509248841
 40
0.4126861102420757
 40
0.4126861102420757
 40
0.4518403695592676
 40
0.4518403695592676
 40
0.5301488881936549
 40
0.5301488881936549
 40
0.5693031475108502
 40
0.5693031475108502
 40
0.5888802771694487
 40
0.5888802771694487
 40
0.6084574068280472
 40
0.6084574068280472
 40
0.6867659254624382
 40
0.6867659254624382
 40
0.7259201847796336
 40
0.7259201847796336
 40
0.765074444096829
 40
0.765074444096829
 40
0.8433829627312203
 40
0.8433829627312203
 40
0.8629600923898181
 40
0.8629600923898181
 40
0.8825372220484159
 40
0.8825372220484159
 40
0.9216914813656113
 40
0.9216914813656113
 40
1.0
 40
1.0
 40
1.0
 40
1.0
 10
106.7069137776107
 20
60.15082685144961
 30
-0.0000000000000005
 10
106.7322539474075
 20
60.1700563260117
 30
-0.0000000000000005
 10
106.7589120511715
 20
60.18866339219534
 30
-0.0000000000000005
 10
106.805126353797
 20
60.21834007687565
 30
-0.0000000000000005
 10
106.8239002273076
 20
60.22976582730659
 30
-0.0000000000000005
 10
106.8626542165168
 20
60.2521106035083
 30
-0.0000000000000005
 10
106.8825505055968
 20
60.2629806121538
 30
-0.0000000000000005
 10
106.9437297840174
 20
60.29467001104043
 30
-0.0000000000000005
 10
106.9865384415244
 20
60.31459090602088
 30
-0.0000000000000005
 10
107.0764494557267
 20
60.35226010581812
 30
-0.0000000000000005
 10
107.1235499525225
 20
60.37000750185351
 30
-0.0000000000000005
 10
107.2224752982721
 20
60.40361546180117
 30
-0.0000000000000005
 10
107.2742967606168
 20
60.41947453426299
 30
-0.0000000000000005
 10
107.356089816222
 20
60.44212497381509
 30
-0.0000000000000005
 10
107.3840494626247
 20
60.4494902588137
 30
-0.0000000000000005
 10
107.4413825953834
 20
60.46388527961049
 30
-0.0000000000000005
 10
107.4705657247456
 20
60.47086763284856
 30
-0.0000000000000005
 10
107.5597433351483
 20
60.49128436803153
 30
-0.0000000000000005
 10
107.6213589379766
 20
60.50418403295315
 30
-0.0000000000000005
 10
107.7174568884388
 20
60.5229922046166
 30
-0.0000000000000005
 10
107.7501036402131
 20
60.52917237650661
 30
-0.0000000000000005
 10
107.8000658625672
 20
60.53838567582514
 30
-0.0000000000000005
 10
107.8168854186129
 20
60.54144737130987
 30
-0.0000000000000005
 10
107.8508690332775
 20
60.54756593748708
 30
-0.0000000000000005
 10
107.8680571514849
 20
60.5506270369842
 30
-0.0000000000000005
 10
107.9545753543314
 20
60.56590119827236
 30
-0.0000000000000005
 10
108.0254505651908
 20
60.57798784510041
 30
-0.0000000000000005
 10
108.1344005084952
 20
60.59662276567627
 30
-0.0000000000000005
 10
108.1708818799382
 20
60.60287243339518
 30
-0.0000000000000005
 10
108.2437968379061
 20
60.61549060057584
 30
-0.0000000000000005
 10
108.2802872825041
 20
60.62186881737049
 30
-0.0000000000000005
 10
108.3898303815583
 20
60.64134683066263
 30
-0.0000000000000006
 10
108.4629537910111
 20
60.65479634955955
 30
-0.0000000000000006
 10
108.5544015715485
 20
60.67254473324662
 30
-0.0000000000000006
 10
108.5726933827149
 20
60.67614073754174
 30
-0.0000000000000006
 10
108.6092799563755
 20
60.68343234437239
 30
-0.0000000000000006
 10
108.6275905160534
 20
60.68713136568978
 30
-0.0000000000000006
 10
108.6821432624148
 20
60.69830790144361
 30
-0.0000000000000006
 10
108.7181292728795
 20
60.70588933117374
 30
-0.0000000000000006
 10
108.8250262540632
 20
60.72906467037714
 30
-0.0000000000000006
 10
108.8948778704297
 20
60.74509377757638
 30
-0.0000000000000006
 10
108.9635262585618
 20
60.76174303271496
 30
-0.0000000000000006
  0
SPLINE
  5
118
330
1F
100
AcDbEntity
  8
1
  6
Continuous
 62
     1
370
    13
100
AcDbSpline
210
0.0
220
0.0
230
1.0
 70
     8
 71
     3
 72
    42
 73
    38
 74
     0
 42
0.000000001
 43
0.0000000001
 40
0.0
 40
0.0
 40
0.0
 40
0.0
 40
0.0760904534542419
 40
0.0760904534542419
 40
0.1521809069084839
 40
0.1521809069084839
 40
0.190226133635605
 40
0.190226133635605
 40
0.2092487469991649
 40
0.2092487469991649
 40
0.2282713603627247
 40
0.2282713603627247
 40
0.3043618138169644
 40
0.3043618138169644
 40
0.380452267271204
 40
0.380452267271204
 40
0.4184974939983245
 40
0.4184974939983245
 40
0.456542720725445
 40
0.456542720725445
 40
0.4945879474525656
 40
0.4945879474525656
 40
0.5326331741796861
 40
0.5326331741796861
 40
0.6087236276339276
 40
0.6087236276339276
 40
0.6848140810881691
 40
0.6848140810881691
 40
0.7609045345424107
 40
0.7609045345424107
 40
0.8369949879966522
 40
0.8369949879966522
 40
0.8750402147237731
 40
0.8750402147237731
 40
0.9130854414508941
 40
0.9130854414508941
 40
1.0
 40
1.0
 40
1.0
 40
1.0
 10
131.3876930190997
 20
60.76626711602233
 30
-0.0000000000000006
 10
131.4565095711252
 20
60.7498014641016
 30
-0.0000000000000006
 10
131.5263027640541
 20
60.73405134371154
 30
-0.0000000000000006
 10
131.6681245355861
 20
60.70390313867116
 30
-0.0000000000000006
 10
131.740153478864
 20
60.68950776864747
 30
-0.0000000000000006
 10
131.850092221018
 20
60.66873727215381
 30
-0.0000000000000006
 10
131.8870906764998
 20
60.66194271787389
 30
-0.0000000000000006
 10
131.9429751626624
 20
60.65193161883049
 30
-0.0000000000000006
 10
131.9616038053777
 20
60.64863592135141
 30
-0.0000000000000006
 10
131.9988601296137
 20
60.64211729180116
 30
-0.0000000000000006
 10
132.0174982612401
 20
60.63889266448348
 30
-0.0000000000000006
 10
132.1101424772582
 20
60.6230157398592
 30
-0.0000000000000005
 10
132.1829291864826
 20
60.61103008780034
 30
-0.0000000000000005
 10
132.3258819787781
 20
60.58761353881722
 30
-0.0000000000000005
 10
132.3960486966029
 20
60.57618169924041
 30
-0.0000000000000005
 10
132.4993558152281
 20
60.55875918261913
 30
-0.0000000000000005
 10
132.533259584865
 20
60.55293991576639
 30
-0.0000000000000005
 10
132.5997312751491
 20
60.54122322092064
 30
-0.0000000000000005
 10
132.6323562816592
 20
60.53531624211406
 30
-0.0000000000000005
 10
132.6964615430958
 20
60.52330003925488
 30
-0.0000000000000005
 10
132.727997150939
 20
60.51717958948247
 30
-0.0000000000000005
 10
132.7897374152273
 20
60.50469142680382
 30
-0.0000000000000005
 10
132.8198152047786
 20
60.49835029253197
 30
-0.0000000000000005
 10
132.9078937083138
 20
60.4789151611583
 30
-0.0000000000000005
 10
132.9637505490743
 20
60.46540506740006
 30
-0.0000000000000005
 10
133.0705897843965
 20
60.43677386164264
 30
-0.0000000000000005
 10
133.1215679821328
 20
60.42165482763634
 30
-0.0000000000000005
 10
133.2191831229375
 20
60.38942352731348
 30
-0.0000000000000005
 10
133.2658177546855
 20
60.37231252217591
 30
-0.0000000000000005
 10
133.3550697903186
 20
60.33578237921474
 30
-0.0000000000000005
 10
133.3977602028259
 20
60.31631955893871
 30
-0.0000000000000005
 10
133.458412522102
 20
60.28545776971613
 30
-0.0000000000000005
 10
133.4780730168758
 20
60.2748911718721
 30
-0.0000000000000005
 10
133.5161742543644
 20
60.25326867811305
 30
-0.0000000000000005
 10
133.534637059338
 20
60.24220181513725
 30
-0.0000000000000005
 10
133.5934210160528
 20
60.20499777740992
 30
-0.0000000000000005
 10
133.6313824896182
 20
60.17775772339891
 30
-0.0000000000000005
 10
133.6665499590888
 20
60.14912513934997
 30
-0.0000000000000005
  0
SPLINE
  5
119
330
1F
100
AcDbEntity
  8
1
  6
Continuous
 62
     1
370
    13
100
AcDbSpline
210
0.0
220
0.0
230
1.0
 70
     8
 71
     3
 72
    45
 73
    41
 74
     0
 42
0.000000001
 43
0.0000000001
 40
0.0
 40
0.0
 40
0.0
 40
0.0
 40
0.0783054675818754
 40
0.0783054675818754
 40
0.1566109351637508
 40
0.1566109351637508
 40
0.1957636689546894
 40
0.1957636689546894
 40
0.2153400358501587
 40
0.2153400358501587
 40
0.2349164027456279
 40
0.2349164027456279
 40
0.3132218703275035
 40
0.3132218703275035
 40
0.3915273379093791
 40
0.3915273379093791
 40
0.4111037048048486
 40
0.4111037048048486
 40
0.4306800717003181
 40
0.4698328054912573
 40
0.4698328054912573
 40
0.5089855392821964
 40
0.5089855392821964
 40
0.5481382730731355
 40
0.5481382730731355
 40
0.6264437406550152
 40
0.6264437406550152
 40
0.7047492082368948
 40
0.7047492082368948
 40
0.7830546758187745
 40
0.7830546758187745
 40
0.8222074096097161
 40
0.8222074096097161
 40
0.8613601434006574
 40
0.8613601434006574
 40
0.9005128771915989
 40
0.9005128771915989
 40
0.9396656109825404
 40
0.9396656109825404
 40
1.0
 40
1.0
 40
1.0
 40
1.0
 10
108.9635262585618
 20
42.53139261603998
 30
0.0000000000000006
 10
108.8948272286973
 20
42.54805415328956
 30
0.0000000000000006
 10
108.8251474862509
 20
42.56403989311587
 30
0.0000000000000006
 10
108.6835456808332
 20
42.59474882670484
 30
0.0000000000000006
 10
108.6116232626643
 20
42.60946939756464
 30
0.0000000000000006
 10
108.5018399730563
 20
42.63079971846306
 30
0.0000000000000006
 10
108.4649171723945
 20
42.63778852702023
 30
0.0000000000000006
 10
108.4090665956528
 20
42.64812293833598
 30
0.0000000000000006
 10
108.3904462847662
 20
42.65152938383213
 30
0.0000000000000006
 10
108.3532006188531
 20
42.65827524431205
 30
0.0000000000000006
 10
108.3345543460879
 20
42.66161831881484
 30
0.0000000000000006
 10
108.2418118428899
 20
42.67810495410613
 30
0.0000000000000005
 10
108.1688738382587
 20
42.69061681799057
 30
0.0000000000000005
 10
108.0254968765011
 20
42.71513958687854
 30
0.0000000000000005
 10
107.9550573321677
 20
42.72715142052164
 30
0.0000000000000005
 10
107.868564857433
 20
42.74241847435537
 30
0.0000000000000005
 10
107.8513330078903
 20
42.74548671439538
 30
0.0000000000000005
 10
107.8172327881932
 20
42.75162520886345
 30
0.0000000000000005
 10
107.7665501959857
 20
42.76084940208634
 30
0.0000000000000005
 10
107.7172228667217
 20
42.77018697852078
 30
0.0000000000000005
 10
107.6525848459241
 20
42.78284242469411
 30
0.0000000000000005
 10
107.6208128105145
 20
42.78927676403731
 30
0.0000000000000005
 10
107.5584179143741
 20
42.80243010963326
 30
0.0000000000000005
 10
107.5280177705713
 20
42.80910193818367
 30
0.0000000000000005
 10
107.4389874272912
 20
42.829524475774
 30
0.0000000000000005
 10
107.3825163709735
 20
42.84368665748355
 30
0.0000000000000005
 10
107.2744890617504
 20
42.87361377381518
 30
0.0000000000000005
 10
107.2229369611372
 20
42.88937661997642
 30
0.0000000000000005
 10
107.1242128277726
 20
42.92288982432594
 30
0.0000000000000005
 10
107.0770430893391
 20
42.94063891139433
 30
0.0000000000000005
 10
107.0093292071186
 20
42.9689903453355
 30
0.0000000000000005
 10
106.9872661414668
 20
42.97872836333211
 30
0.0000000000000005
 10
106.9441307171773
 20
42.99881533562047
 30
0.0000000000000005
 10
106.9230551792887
 20
43.00916754269832
 30
0.0000000000000005
 10
106.8820645302073
 20
43.03041393771835
 30
0.0000000000000005
 10
106.8621261244238
 20
43.04131994764811
 30
0.0000000000000005
 10
106.8234881024197
 20
43.06361726543864
 30
0.0000000000000005
 10
106.8047653597032
 20
43.07502017269242
 30
0.0000000000000005
 10
106.7586479314698
 20
43.10465313783972
 30
0.0000000000000005
 10
106.7320294990238
 20
43.1232415307366
 30
0.0000000000000005
 10
106.7067194774642
 20
43.14245644570421
 30
0.0000000000000005
  0
SPLINE
  5
11A
330
1F
100
AcDbEntity
  8
1
  6
Continuous
 62
     1
370
    13
100
AcDbSpline
210
0.0
220
0.0
230
1.0
 70
     8
 71
     3
 72
    35
 73
    31
 74
     0
 42
0.000000001
 43
0.0000000001
 40
0.0
 40
0.0
 40
0.0
 40
0.0
 40
0.0625
 40
0.0625
 40
0.1249999999999999
 40
0.1874999999999999
 40
0.1874999999999999
 40
0.2499999999999999
 40
0.2499999999999999
 40
0.3124999999999999
 40
0.3124999999999999
 40
0.3749999999999999
 40
0.3749999999999999
 40
0.4374999999999999
 40
0.4374999999999999
 40
0.5
 40
0.5625000000000001
 40
0.5625000000000001
 40
0.6250000000000001
 40
0.6250000000000001
 40
0.6875000000000002
 40
0.6875000000000002
 40
0.7500000000000002
 40
0.7500000000000002
 40
0.8125000000000002
 40
0.8125000000000002
 40
0.8750000000000001
 40
0.9375000000000001
 40
0.9375000000000001
 40
1.0
 40
1.0
 40
1.0
 40
1.0
 10
108.9635262585618
 20
60.76174303271496
 30
-0.0000000000000006
 10
109.4306873465618
 20
60.77459389516918
 30
-0.0000000000000006
 10
109.8978509499349
 20
60.78390027676222
 30
-0.0000000000000006
 10
110.8321824092718
 20
60.7965205979025
 30
-0.0000000000000006
 10
111.7665181225871
 20
60.80314652179451
 30
-0.0000000000000006
 10
112.7008605261239
 20
60.80034507156735
 30
-0.0000000000000006
 10
113.635205228764
 20
60.79430389210872
 30
-0.0000000000000006
 10
114.1023787279982
 20
60.78966574507938
 30
-0.0000000000000006
 10
115.0367268648719
 20
60.77878529318634
 30
-0.0000000000000006
 10
115.503901498801
 20
60.77254821661343
 30
-0.0000000000000006
 10
116.4382507080511
 20
60.76015664970279
 30
-0.0000000000000006
 10
116.9054252775915
 20
60.7540103049131
 30
-0.0000000000000006
 10
117.839773268194
 20
60.74333596776024
 30
-0.0000000000000006
 10
118.3069466827481
 20
60.73881714572671
 30
-0.0000000000000006
 10
119.2412915717756
 20
60.73251332271366
 30
-0.0000000000000006
 10
120.1756345118235
 20
60.72895585999728
 30
-0.0000000000000006
 10
121.1099729391414
 20
60.73175740868279
 30
-0.0000000000000006
 10
122.0443093515713
 20
60.73739819107291
 30
-0.0000000000000006
 10
122.5114765545161
 20
60.74163231769973
 30
-0.0000000000000006
 10
123.445809683163
 20
60.75190036847584
 30
-0.0000000000000006
 10
123.9129756152961
 20
60.75792523060837
 30
-0.0000000000000006
 10
124.847307267503
 20
60.77027377342776
 30
-0.0000000000000006
 10
125.3144729935465
 20
60.77658904202907
 30
-0.0000000000000006
 10
126.2488054304027
 20
60.7878319139592
 30
-0.0000000000000006
 10
126.7159721451957
 20
60.79275390859395
 30
-0.0000000000000006
 10
127.6503077342912
 20
60.79955487403322
 30
-0.0000000000000006
 10
128.5846454862899
 20
60.803308033451
 30
-0.0000000000000006
 10
129.5189896893079
 20
60.79797088509638
 30
-0.0000000000000006
 10
130.4533380433902
 20
60.78678435846534
 30
-0.0000000000000006
 10
130.9205142954306
 20
60.77826715706236
 30
-0.0000000000000006
 10
131.3876930190997
 20
60.76626711602233
 30
-0.0000000000000006
  0
SPLINE
  5
11B
330
1F
100
AcDbEntity
  8
1
  6
Continuous
 62
     1
370
    13
100
AcDbSpline
210
0.0
220
0.0
230
1.0
 70
     8
 71
     3
 72
    35
 73
    31
 74
     0
 42
0.000000001
 43
0.0000000001
 40
0.0
 40
0.0
 40
0.0
 40
0.0
 40
0.0625000000000002
 40
0.0625000000000002
 40
0.1250000000000005
 40
0.1875000000000005
 40
0.1875000000000005
 40
0.2500000000000006
 40
0.2500000000000006
 40
0.3125000000000006
 40
0.3125000000000006
 40
0.3750000000000006
 40
0.3750000000000006
 40
0.4375000000000005
 40
0.4375000000000005
 40
0.5000000000000004
 40
0.5625000000000004
 40
0.5625000000000004
 40
0.6250000000000004
 40
0.6250000000000004
 40
0.6875000000000006
 40
0.6875000000000006
 40
0.7500000000000004
 40
0.7500000000000004
 40
0.8125000000000003
 40
0.8125000000000003
 40
0.8750000000000002
 40
0.9375000000000002
 40
0.9375000000000002
 40
1.0
 40
1.0
 40
1.0
 40
1.0
 10
131.3876930190997
 20
42.52686853273262
 30
0.0000000000000006
 10
130.9205142954306
 20
42.51486849169258
 30
0.0000000000000006
 10
130.4533380433902
 20
42.50635129028961
 30
0.0000000000000006
 10
129.5189896893079
 20
42.49516476365856
 30
0.0000000000000006
 10
128.5846454862899
 20
42.48982761530394
 30
0.0000000000000006
 10
127.6503077342912
 20
42.49358077472172
 30
0.0000000000000006
 10
126.7159721451957
 20
42.50038174016099
 30
0.0000000000000006
 10
126.2488054304027
 20
42.50530373479575
 30
0.0000000000000006
 10
125.3144729935465
 20
42.51654660672587
 30
0.0000000000000006
 10
124.847307267503
 20
42.52286187532718
 30
0.0000000000000006
 10
123.9129756152961
 20
42.53521041814657
 30
0.0000000000000006
 10
123.445809683163
 20
42.5412352802791
 30
0.0000000000000006
 10
122.5114765545161
 20
42.55150333105522
 30
0.0000000000000006
 10
122.0443093515713
 20
42.55573745768204
 30
0.0000000000000006
 10
121.1099729391414
 20
42.56137824007216
 30
0.0000000000000006
 10
120.1756345115298
 20
42.56417937489014
 30
0.0000000000000006
 10
119.2412915717756
 20
42.56062232604128
 30
0.0000000000000006
 10
118.3069466827481
 20
42.55431850302823
 30
0.0000000000000006
 10
117.839773268194
 20
42.5497996809947
 30
0.0000000000000006
 10
116.9054252775915
 20
42.53912534384184
 30
0.0000000000000006
 10
116.4382507080511
 20
42.53297899905257
 30
0.0000000000000006
 10
115.503901498801
 20
42.52058743214194
 30
0.0000000000000006
 10
115.0367268648719
 20
42.51435035556861
 30
0.0000000000000006
 10
114.1023787279982
 20
42.50346990367557
 30
0.0000000000000006
 10
113.635205228764
 20
42.49883175664623
 30
0.0000000000000006
 10
112.7008605261239
 20
42.4927905771876
 30
0.0000000000000006
 10
111.7665181223985
 20
42.48998886117925
 30
0.0000000000000006
 10
110.8321824092718
 20
42.49661505085244
 30
0.0000000000000006
 10
109.8978509499348
 20
42.50923537199272
 30
0.0000000000000006
 10
109.4306873465618
 20
42.51854175358575
 30
0.0000000000000006
 10
108.9635262585618
 20
42.53139261603998
 30
0.0000000000000006
  0
LINE
  5
11C
330
1F
100
AcDbEntity
  8
1
  6
CENTER
 62
    30
370
    13
100
AcDbLine
 10
120.260666
 20
176.404755
 30
0.0
 11
120.260666
 21
275.404755
 31
0.0
  0
LINE
  5
11D
330
1F
100
AcDbEntity
  8
1
  6
CENTER
 62
    30
370
    13
100
AcDbLine
 10
91.760666
 20
237.904755
 30
0.0
 11
150.760666
 21
237.904755
 31
0.0
  0
ENDSEC
  0
SECTION
  2
OBJECTS
  0
DICTIONARY
  5
C
330
0
100
AcDbDictionary
281
     1
  3
ACAD_DETAILVIEWSTYLE
350
172
  3
ACAD_GROUP
350
D
  3
ACAD_LAYOUT
350
1A
  3
ACAD_MATERIAL
350
43
  3
ACAD_MLEADERSTYLE
350
6B
  3
ACAD_MLINESTYLE
350
17
  3
ACAD_PLOTSETTINGS
350
19
  3
ACAD_PLOTSTYLENAME
350
E
  3
ACAD_SCALELIST
350
47
  3
ACAD_SECTIONVIEWSTYLE
350
173
  3
ACAD_TABLESTYLE
350
69
  3
ACAD_VISUALSTYLE
350
2A
  3
ACDB_RECOMPOSE_DATA
350
16F
  3
AcDbVariableDictionary
350
12F
  0
DICTIONARY
  5
12D
330
8
100
AcDbDictionary
280
     1
281
     1
  3
ACAD_XREC_ROUNDTRIP
360
12E
  0
DICTIONARY
  5
172
102
{ACAD_REACTORS
330
C
102
}
330
C
100
AcDbDictionary
281
     1
  0
DICTIONARY
  5
D
102
{ACAD_REACTORS
330
C
102
}
330
C
100
AcDbDictionary
281
     1
  0
DICTIONARY
  5
1A
102
{ACAD_REACTORS
330
C
102
}
330
C
100
AcDbDictionary
281
     1
  3
Layout1
350
1E
  3
Layout2
350
26
  3
Model
350
22
  0
DICTIONARY
  5
43
102
{ACAD_REACTORS
330
C
102
}
330
C
100
AcDbDictionary
281
     1
  3
ByBlock
350
45
  3
ByLayer
350
44
  3
Global
350
46
  0
DICTIONARY
  5
6B
102
{ACAD_REACTORS
330
C
102
}
330
C
100
AcDbDictionary
281
     1
  3
Standard
350
6C
  0
DICTIONARY
  5
17
102
{ACAD_REACTORS
330
C
102
}
330
C
100
AcDbDictionary
281
     1
  3
Standard
350
18
  0
DICTIONARY
  5
19
102
{ACAD_REACTORS
330
C
102
}
330
C
100
AcDbDictionary
281
     1
  0
ACDBDICTIONARYWDFLT
  5
E
102
{ACAD_REACTORS
330
C
102
}
330
C
100
AcDbDictionary
281
     1
  3
Normal
350
F
100
AcDbDictionaryWithDefault
340
F
  0
DICTIONARY
  5
47
102
{ACAD_REACTORS
330
C
102
}
330
C
100
AcDbDictionary
281
     1
  3
A0
350
48
  3
A1
350
49
  3
A2
350
4A
  3
A3
350
4B
  3
A4
350
4C
  3
A5
350
4D
  3
A6
350
4E
  3
A7
350
4F
  3
A8
350
50
  3
A9
350
51
  3
B0
350
52
  3
B1
350
53
  3
B2
350
54
  3
B3
350
55
  3
B4
350
56
  3
B5
350
57
  3
B6
350
58
  3
B7
350
59
  3
B8
350
5A
  3
B9
350
5B
  3
C0
350
5C
  3
C1
350
5D
  3
C2
350
5E
  3
C3
350
5F
  3
C4
350
60
  3
C5
350
61
  3
C6
350
62
  3
C7
350
63
  3
C8
350
64
  3
C9
350
65
  3
D0
350
66
  3
D1
350
67
  3
D2
350
68
  0
DICTIONARY
  5
173
102
{ACAD_REACTORS
330
C
102
}
330
C
100
AcDbDictionary
281
     1
  0
DICTIONARY
  5
69
102
{ACAD_REACTORS
330
C
102
}
330
C
100
AcDbDictionary
281
     1
  3
Standard
350
6A
  0
DICTIONARY
  5
2A
102
{ACAD_REACTORS
330
C
102
}
330
C
100
AcDbDictionary
281
     1
  3
2dWireframe
350
2F
  3
Basic
350
32
  3
Brighten
350
36
  3
ColorChange
350
3A
  3
Conceptual
350
34
  3
Dim
350
35
  3
EdgeColorOff
350
3D
  3
Facepattern
350
39
  3
Flat
350
2B
  3
FlatWithEdges
350
2C
  3
Gouraud
350
2D
  3
GouraudWithEdges
350
2E
  3
Hidden
350
31
  3
JitterOff
350
3B
  3
Linepattern
350
38
  3
OverhangOff
350
3C
  3
Realistic
350
33
  3
Shaded
350
42
  3
Shaded with edges
350
41
  3
Shades of Gray
350
3E
  3
Sketchy
350
3F
  3
Thicken
350
37
  3
Wireframe
350
30
  3
X-Ray
350
40
  0
XRECORD
  5
16F
102
{ACAD_REACTORS
330
C
102
}
330
C
100
AcDbXrecord
280
     1
 90
        1
330
6A
  0
DICTIONARY
  5
12F
102
{ACAD_REACTORS
330
C
102
}
330
C
100
AcDbDictionary
281
     1
  3
CANNOSCALE
350
130
  3
CMLEADERSTYLE
350
171
  3
CTABLESTYLE
350
170
  3
MSLTSCALE
350
131
  3
XCLIPFRAME
350
132
  0
XRECORD
  5
12E
102
{ACAD_REACTORS
330
12D
102
}
330
12D
100
AcDbXrecord
280
     1
102
VTR_0.000_0.000_1.000_1.000_VISUALSTYLE
340
2F
102
VTR_0.000_0.000_1.000_1.000_GRIDDISPLAY
 70
     3
102
VTR_0.000_0.000_1.000_1.000_GRIDMAJOR
 70
     5
102
VTR_0.000_0.000_1.000_1.000_DEFAULTLIGHTING
280
     1
102
VTR_0.000_0.000_1.000_1.000_DEFAULTLIGHTINGTYPE
 70
     1
102
VTR_0.000_0.000_1.000_1.000_BRIGHTNESS
141
0.0
102
VTR_0.000_0.000_1.000_1.000_CONTRAST
142
0.0
102
VTR_0.000_0.000_0.500_1.000_VISUALSTYLE
340
2F
102
VTR_0.000_0.000_0.500_1.000_GRIDDISPLAY
 70
     3
102
VTR_0.000_0.000_0.500_1.000_GRIDMAJOR
 70
     5
102
VTR_0.000_0.000_0.500_1.000_DEFAULTLIGHTING
280
     1
102
VTR_0.000_0.000_0.500_1.000_DEFAULTLIGHTINGTYPE
 70
     1
102
VTR_0.000_0.000_0.500_1.000_BRIGHTNESS
141
0.0
102
VTR_0.000_0.000_0.500_1.000_CONTRAST
142
0.0
102
VTR_0.500_0.000_1.000_1.000_VISUALSTYLE
340
2F
102
VTR_0.500_0.000_1.000_1.000_GRIDDISPLAY
 70
     3
102
VTR_0.500_0.000_1.000_1.000_GRIDMAJOR
 70
     5
102
VTR_0.500_0.000_1.000_1.000_DEFAULTLIGHTING
280
     1
102
VTR_0.500_0.000_1.000_1.000_DEFAULTLIGHTINGTYPE
 70
     1
102
VTR_0.500_0.000_1.000_1.000_BRIGHTNESS
141
0.0
102
VTR_0.500_0.000_1.000_1.000_CONTRAST
142
0.0
102
VTR_0.000_0.500_1.000_1.000_VISUALSTYLE
340
2F
102
VTR_0.000_0.500_1.000_1.000_GRIDDISPLAY
 70
     3
102
VTR_0.000_0.500_1.000_1.000_GRIDMAJOR
 70
     5
102
VTR_0.000_0.500_1.000_1.000_DEFAULTLIGHTING
280
     1
102
VTR_0.000_0.500_1.000_1.000_DEFAULTLIGHTINGTYPE
 70
     1
102
VTR_0.000_0.500_1.000_1.000_BRIGHTNESS
141
0.0
102
VTR_0.000_0.500_1.000_1.000_CONTRAST
142
0.0
102
VTR_0.000_0.000_1.000_0.500_VISUALSTYLE
340
2F
102
VTR_0.000_0.000_1.000_0.500_GRIDDISPLAY
 70
     3
102
VTR_0.000_0.000_1.000_0.500_GRIDMAJOR
 70
     5
102
VTR_0.000_0.000_1.000_0.500_DEFAULTLIGHTING
280
     1
102
VTR_0.000_0.000_1.000_0.500_DEFAULTLIGHTINGTYPE
 70
     1
102
VTR_0.000_0.000_1.000_0.500_BRIGHTNESS
141
0.0
102
VTR_0.000_0.000_1.000_0.500_CONTRAST
142
0.0
102
VTR_0.000_0.500_0.500_1.000_VISUALSTYLE
340
2F
102
VTR_0.000_0.500_0.500_1.000_GRIDDISPLAY
 70
     3
102
VTR_0.000_0.500_0.500_1.000_GRIDMAJOR
 70
     5
102
VTR_0.000_0.500_0.500_1.000_DEFAULTLIGHTING
280
     1
102
VTR_0.000_0.500_0.500_1.000_DEFAULTLIGHTINGTYPE
 70
     1
102
VTR_0.000_0.500_0.500_1.000_BRIGHTNESS
141
0.0
102
VTR_0.000_0.500_0.500_1.000_CONTRAST
142
0.0
102
VTR_0.000_0.000_0.500_0.500_VISUALSTYLE
340
2F
102
VTR_0.000_0.000_0.500_0.500_GRIDDISPLAY
 70
     3
102
VTR_0.000_0.000_0.500_0.500_GRIDMAJOR
 70
     5
102
VTR_0.000_0.000_0.500_0.500_DEFAULTLIGHTING
280
     1
102
VTR_0.000_0.000_0.500_0.500_DEFAULTLIGHTINGTYPE
 70
     1
102
VTR_0.000_0.000_0.500_0.500_BRIGHTNESS
141
0.0
102
VTR_0.000_0.000_0.500_0.500_CONTRAST
142
0.0
102
VTR_0.500_0.000_1.000_0.500_VISUALSTYLE
340
2F
102
VTR_0.500_0.000_1.000_0.500_GRIDDISPLAY
 70
     3
102
VTR_0.500_0.000_1.000_0.500_GRIDMAJOR
 70
     5
102
VTR_0.500_0.000_1.000_0.500_DEFAULTLIGHTING
280
     1
102
VTR_0.500_0.000_1.000_0.500_DEFAULTLIGHTINGTYPE
 70
     1
102
VTR_0.500_0.000_1.000_0.500_BRIGHTNESS
141
0.0
102
VTR_0.500_0.000_1.000_0.500_CONTRAST
142
0.0
102
VTR_0.500_0.500_1.000_1.000_VISUALSTYLE
340
2F
102
VTR_0.500_0.500_1.000_1.000_GRIDDISPLAY
 70
     3
102
VTR_0.500_0.500_1.000_1.000_GRIDMAJOR
 70
     5
102
VTR_0.500_0.500_1.000_1.000_DEFAULTLIGHTING
280
     1
102
VTR_0.500_0.500_1.000_1.000_DEFAULTLIGHTINGTYPE
 70
     1
102
VTR_0.500_0.500_1.000_1.000_BRIGHTNESS
141
0.0
102
VTR_0.500_0.500_1.000_1.000_CONTRAST
142
0.0
102
VTR_0.000_0.500_0.333_1.000_VISUALSTYLE
340
2F
102
VTR_0.000_0.500_0.333_1.000_GRIDDISPLAY
 70
     3
102
VTR_0.000_0.500_0.333_1.000_GRIDMAJOR
 70
     5
102
VTR_0.000_0.500_0.333_1.000_DEFAULTLIGHTING
280
     1
102
VTR_0.000_0.500_0.333_1.000_DEFAULTLIGHTINGTYPE
 70
     1
102
VTR_0.000_0.500_0.333_1.000_BRIGHTNESS
141
0.0
102
VTR_0.000_0.500_0.333_1.000_CONTRAST
142
0.0
102
VTR_0.000_0.000_0.333_0.500_VISUALSTYLE
340
2F
102
VTR_0.000_0.000_0.333_0.500_GRIDDISPLAY
 70
     3
102
VTR_0.000_0.000_0.333_0.500_GRIDMAJOR
 70
     5
102
VTR_0.000_0.000_0.333_0.500_DEFAULTLIGHTING
280
     1
102
VTR_0.000_0.000_0.333_0.500_DEFAULTLIGHTINGTYPE
 70
     1
102
VTR_0.000_0.000_0.333_0.500_BRIGHTNESS
141
0.0
102
VTR_0.000_0.000_0.333_0.500_CONTRAST
142
0.0
102
VTR_0.333_0.500_0.667_1.000_VISUALSTYLE
340
2F
102
VTR_0.333_0.500_0.667_1.000_GRIDDISPLAY
 70
     3
102
VTR_0.333_0.500_0.667_1.000_GRIDMAJOR
 70
     5
102
VTR_0.333_0.500_0.667_1.000_DEFAULTLIGHTING
280
     1
102
VTR_0.333_0.500_0.667_1.000_DEFAULTLIGHTINGTYPE
 70
     1
102
VTR_0.333_0.500_0.667_1.000_BRIGHTNESS
141
0.0
102
VTR_0.333_0.500_0.667_1.000_CONTRAST
142
0.0
102
VTR_0.333_0.000_0.667_0.500_VISUALSTYLE
340
2F
102
VTR_0.333_0.000_0.667_0.500_GRIDDISPLAY
 70
     3
102
VTR_0.333_0.000_0.667_0.500_GRIDMAJOR
 70
     5
102
VTR_0.333_0.000_0.667_0.500_DEFAULTLIGHTING
280
     1
102
VTR_0.333_0.000_0.667_0.500_DEFAULTLIGHTINGTYPE
 70
     1
102
VTR_0.333_0.000_0.667_0.500_BRIGHTNESS
141
0.0
102
VTR_0.333_0.000_0.667_0.500_CONTRAST
142
0.0
102
VTR_0.667_0.500_1.000_1.000_VISUALSTYLE
340
2F
102
VTR_0.667_0.500_1.000_1.000_GRIDDISPLAY
 70
     3
102
VTR_0.667_0.500_1.000_1.000_GRIDMAJOR
 70
     5
102
VTR_0.667_0.500_1.000_1.000_DEFAULTLIGHTING
280
     1
102
VTR_0.667_0.500_1.000_1.000_DEFAULTLIGHTINGTYPE
 70
     1
102
VTR_0.667_0.500_1.000_1.000_BRIGHTNESS
141
0.0
102
VTR_0.667_0.500_1.000_1.000_CONTRAST
142
0.0
102
VTR_0.667_0.000_1.000_0.500_VISUALSTYLE
340
2F
102
VTR_0.667_0.000_1.000_0.500_GRIDDISPLAY
 70
     3
102
VTR_0.667_0.000_1.000_0.500_GRIDMAJOR
 70
     5
102
VTR_0.667_0.000_1.000_0.500_DEFAULTLIGHTING
280
     1
102
VTR_0.667_0.000_1.000_0.500_DEFAULTLIGHTINGTYPE
 70
     1
102
VTR_0.667_0.000_1.000_0.500_BRIGHTNESS
141
0.0
102
VTR_0.667_0.000_1.000_0.500_CONTRAST
142
0.0
  0
LAYOUT
  5
1E
102
{ACAD_REACTORS
330
1A
102
}
330
1A
100
AcDbPlotSettings
  1

  2
none_device
  4

  6

 40
0.0
 41
0.0
 42
0.0
 43
0.0
 44
0.0
 45
0.0
 46
0.0
 47
0.0
 48
0.0
 49
0.0
140
0.0
141
0.0
142
1.0
143
1.0
 70
   688
 72
     0
 73
     0
 74
     5
  7

 75
    16
 76
     0
 77
     2
 78
   300
147
1.0
148
0.0
149
0.0
100
AcDbLayout
  1
Layout1
 70
     1
 71
     1
 10
-0.5
 20
-0.5
 11
5.0
 21
5.0
 12
0.0
 22
0.0
 32
0.0
 14
-0.5
 24
-0.5
 34
-0.5
 15
5.0
 25
5.0
 35
5.0
146
0.0
 13
0.0
 23
0.0
 33
0.0
 16
1.0
 26
0.0
 36
0.0
 17
0.0
 27
1.0
 37
0.0
 76
     0
330
1B
  0
LAYOUT
  5
26
102
{ACAD_REACTORS
330
1A
102
}
330
1A
100
AcDbPlotSettings
  1

  2
none_device
  4

  6

 40
0.0
 41
0.0
 42
0.0
 43
0.0
 44
0.0
 45
0.0
 46
0.0
 47
0.0
 48
0.0
 49
0.0
140
0.0
141
0.0
142
1.0
143
1.0
 70
   688
 72
     0
 73
     0
 74
     5
  7

 75
    16
 76
     0
 77
     2
 78
   300
147
1.0
148
0.0
149
0.0
100
AcDbLayout
  1
Layout2
 70
     1
 71
     2
 10
0.0
 20
0.0
 11
0.0
 21
0.0
 12
0.0
 22
0.0
 32
0.0
 14
0.0
 24
0.0
 34
0.0
 15
0.0
 25
0.0
 35
0.0
146
0.0
 13
0.0
 23
0.0
 33
0.0
 16
1.0
 26
0.0
 36
0.0
 17
0.0
 27
1.0
 37
0.0
 76
     0
330
23
  0
LAYOUT
  5
22
102
{ACAD_REACTORS
330
1A
102
}
330
1A
100
AcDbPlotSettings
  1

  2
none_device
  4
Letter_(8.50_x_11.00_Inches)
  6

 40
6.35
 41
6.35
 42
6.350005
 43
6.350005
 44
215.9
 45
279.4
 46
0.0
 47
0.0
 48
0.0
 49
0.0
140
0.0
141
0.0
142
1.0
143
1.0
 70
  1712
 72
     0
 73
     0
 74
     0
  7

 75
     0
 76
     0
 77
     2
 78
   300
147
1.0
148
0.0
149
0.0
100
AcDbLayout
  1
Model
 70
     1
 71
     0
 10
-0.5
 20
-0.5
 11
5.0
 21
5.0
 12
0.0
 22
0.0
 32
0.0
 14
-0.5
 24
-0.5
 34
-0.5
 15
5.0
 25
5.0
 35
5.0
146
0.0
 13
0.0
 23
0.0
 33
0.0
 16
1.0
 26
0.0
 36
0.0
 17
0.0
 27
1.0
 37
0.0
 76
     0
330
1F
331
29
  0
MATERIAL
  5
45
102
{ACAD_REACTORS
330
43
102
}
102
{ACAD_XDICTIONARY
360
165
102
}
330
43
100
AcDbMaterial
  1
ByBlock
  0
MATERIAL
  5
44
102
{ACAD_REACTORS
330
43
102
}
102
{ACAD_XDICTIONARY
360
163
102
}
330
43
100
AcDbMaterial
  1
ByLayer
  0
MATERIAL
  5
46
102
{ACAD_REACTORS
330
43
102
}
102
{ACAD_XDICTIONARY
360
167
102
}
330
43
100
AcDbMaterial
  1
Global
  0
MLEADERSTYLE
  5
6C
102
{ACAD_REACTORS
330
6B
102
}
102
{ACAD_XDICTIONARY
360
16D
102
}
330
6B
100
AcDbMLeaderStyle
170
     2
171
     1
172
     0
 90
        2
 40
0.0
 41
0.0
173
     1
 91
-1056964608
340
14
 92
       -2
290
     1
 42
0.09
291
     1
 43
0.36
  3
Standard
341
0
 44
0.18
300

342
11
174
     1
178
     6
175
     1
176
     0
 93
-1056964608
 45
0.18
292
     0
297
     0
 46
0.18
343
0
 94
-1056964608
 47
1.0
 49
1.0
140
1.0
293
     1
141
0.0
294
     1
177
     0
142
1.0
295
     0
296
     0
143
0.125
1001
ACAD_MLEADERVER
1070
     2
  0
MLINESTYLE
  5
18
102
{ACAD_REACTORS
330
17
102
}
330
17
100
AcDbMlineStyle
  2
Standard
 70
     0
  3

 62
   256
 51
90.0
 52
90.0
 71
     2
 49
0.5
 62
   256
  6
BYLAYER
 49
-0.5
 62
   256
  6
BYLAYER
  0
ACDBPLACEHOLDER
  5
F
102
{ACAD_REACTORS
330
E
102
}
330
E
  0
SCALE
  5
48
102
{ACAD_REACTORS
330
47
102
}
330
47
100
AcDbScale
 70
     0
300
1:1
140
1.0
141
1.0
290
     1
  0
SCALE
  5
49
102
{ACAD_REACTORS
330
47
102
}
330
47
100
AcDbScale
 70
     0
300
1:2
140
1.0
141
2.0
290
     0
  0
SCALE
  5
4A
102
{ACAD_REACTORS
330
47
102
}
330
47
100
AcDbScale
 70
     0
300
1:4
140
1.0
141
4.0
290
     0
  0
SCALE
  5
4B
102
{ACAD_REACTORS
330
47
102
}
330
47
100
AcDbScale
 70
     0
300
1:5
140
1.0
141
5.0
290
     0
  0
SCALE
  5
4C
102
{ACAD_REACTORS
330
47
102
}
330
47
100
AcDbScale
 70
     0
300
1:8
140
1.0
141
8.0
290
     0
  0
SCALE
  5
4D
102
{ACAD_REACTORS
330
47
102
}
330
47
100
AcDbScale
 70
     0
300
1:10
140
1.0
141
10.0
290
     0
  0
SCALE
  5
4E
102
{ACAD_REACTORS
330
47
102
}
330
47
100
AcDbScale
 70
     0
300
1:16
140
1.0
141
16.0
290
     0
  0
SCALE
  5
4F
102
{ACAD_REACTORS
330
47
102
}
330
47
100
AcDbScale
 70
     0
300
1:20
140
1.0
141
20.0
290
     0
  0
SCALE
  5
50
102
{ACAD_REACTORS
330
47
102
}
330
47
100
AcDbScale
 70
     0
300
1:30
140
1.0
141
30.0
290
     0
  0
SCALE
  5
51
102
{ACAD_REACTORS
330
47
102
}
330
47
100
AcDbScale
 70
     0
300
1:40
140
1.0
141
40.0
290
     0
  0
SCALE
  5
52
102
{ACAD_REACTORS
330
47
102
}
330
47
100
AcDbScale
 70
     0
300
1:50
140
1.0
141
50.0
290
     0
  0
SCALE
  5
53
102
{ACAD_REACTORS
330
47
102
}
330
47
100
AcDbScale
 70
     0
300
1:100
140
1.0
141
100.0
290
     0
  0
SCALE
  5
54
102
{ACAD_REACTORS
330
47
102
}
330
47
100
AcDbScale
 70
     0
300
2:1
140
2.0
141
1.0
290
     0
  0
SCALE
  5
55
102
{ACAD_REACTORS
330
47
102
}
330
47
100
AcDbScale
 70
     0
300
4:1
140
4.0
141
1.0
290
     0
  0
SCALE
  5
56
102
{ACAD_REACTORS
330
47
102
}
330
47
100
AcDbScale
 70
     0
300
8:1
140
8.0
141
1.0
290
     0
  0
SCALE
  5
57
102
{ACAD_REACTORS
330
47
102
}
330
47
100
AcDbScale
 70
     0
300
10:1
140
10.0
141
1.0
290
     0
  0
SCALE
  5
58
102
{ACAD_REACTORS
330
47
102
}
330
47
100
AcDbScale
 70
     0
300
100:1
140
100.0
141
1.0
290
     0
  0
SCALE
  5
59
102
{ACAD_REACTORS
330
47
102
}
330
47
100
AcDbScale
 70
     0
300
1/128" = 1'-0"
140
0.007812
141
12.0
290
     0
  0
SCALE
  5
5A
102
{ACAD_REACTORS
330
47
102
}
330
47
100
AcDbScale
 70
     0
300
1/64" = 1'-0"
140
0.015625
141
12.0
290
     0
  0
SCALE
  5
5B
102
{ACAD_REACTORS
330
47
102
}
330
47
100
AcDbScale
 70
     0
300
1/32" = 1'-0"
140
0.03125
141
12.0
290
     0
  0
SCALE
  5
5C
102
{ACAD_REACTORS
330
47
102
}
330
47
100
AcDbScale
 70
     0
300
1/16" = 1'-0"
140
0.0625
141
12.0
290
     0
  0
SCALE
  5
5D
102
{ACAD_REACTORS
330
47
102
}
330
47
100
AcDbScale
 70
     0
300
3/32" = 1'-0"
140
0.09375
141
12.0
290
     0
  0
SCALE
  5
5E
102
{ACAD_REACTORS
330
47
102
}
330
47
100
AcDbScale
 70
     0
300
1/8" = 1'-0"
140
0.125
141
12.0
290
     0
  0
SCALE
  5
5F
102
{ACAD_REACTORS
330
47
102
}
330
47
100
AcDbScale
 70
     0
300
3/16" = 1'-0"
140
0.1875
141
12.0
290
     0
  0
SCALE
  5
60
102
{ACAD_REACTORS
330
47
102
}
330
47
100
AcDbScale
 70
     0
300
1/4" = 1'-0"
140
0.25
141
12.0
290
     0
  0
SCALE
  5
61
102
{ACAD_REACTORS
330
47
102
}
330
47
100
AcDbScale
 70
     0
300
3/8" = 1'-0"
140
0.375
141
12.0
290
     0
  0
SCALE
  5
62
102
{ACAD_REACTORS
330
47
102
}
330
47
100
AcDbScale
 70
     0
300
1/2" = 1'-0"
140
0.5
141
12.0
290
     0
  0
SCALE
  5
63
102
{ACAD_REACTORS
330
47
102
}
330
47
100
AcDbScale
 70
     0
300
3/4" = 1'-0"
140
0.75
141
12.0
290
     0
  0
SCALE
  5
64
102
{ACAD_REACTORS
330
47
102
}
330
47
100
AcDbScale
 70
     0
300
1" = 1'-0"
140
1.0
141
12.0
290
     0
  0
SCALE
  5
65
102
{ACAD_REACTORS
330
47
102
}
330
47
100
AcDbScale
 70
     0
300
1-1/2" = 1'-0"
140
1.5
141
12.0
290
     0
  0
SCALE
  5
66
102
{ACAD_REACTORS
330
47
102
}
330
47
100
AcDbScale
 70
     0
300
3" = 1'-0"
140
3.0
141
12.0
290
     0
  0
SCALE
  5
67
102
{ACAD_REACTORS
330
47
102
}
330
47
100
AcDbScale
 70
     0
300
6" = 1'-0"
140
6.0
141
12.0
290
     0
  0
SCALE
  5
68
102
{ACAD_REACTORS
330
47
102
}
330
47
100
AcDbScale
 70
     0
300
1'-0" = 1'-0"
140
12.0
141
12.0
290
     0
  0
TABLESTYLE
  5
6A
102
{ACAD_REACTORS
330
69
102
}
102
{ACAD_XDICTIONARY
360
169
102
}
330
69
100
AcDbTableStyle
  3
Standard
 70
     0
 71
     0
 40
0.06
 41
0.06
280
     0
281
     0
  7
Standard
140
0.18
170
     2
 62
     0
 63
   257
283
     0
274
    -2
284
     1
 64
     0
275
    -2
285
     1
 65
     0
276
    -2
286
     1
 66
     0
277
    -2
287
     1
 67
     0
278
    -2
288
     1
 68
     0
279
    -2
289
     1
 69
     0
  7
Standard
140
0.25
170
     5
 62
     0
 63
   257
283
     0
274
    -2
284
     1
 64
     0
275
    -2
285
     1
 65
     0
276
    -2
286
     1
 66
     0
277
    -2
287
     1
 67
     0
278
    -2
288
     1
 68
     0
279
    -2
289
     1
 69
     0
  7
Standard
140
0.18
170
     5
 62
     0
 63
   257
283
     0
274
    -2
284
     1
 64
     0
275
    -2
285
     1
 65
     0
276
    -2
286
     1
 66
     0
277
    -2
287
     1
 67
     0
278
    -2
288
     1
 68
     0
279
    -2
289
     1
 69
     0
  0
VISUALSTYLE
  5
2F
102
{ACAD_REACTORS
330
2A
102
}
102
{ACAD_XDICTIONARY
360
13B
102
}
330
2A
100
AcDbVisualStyle
  2
2dWireframe
 70
     4
 71
     0
 72
     2
 73
     0
 90
        0
 40
0.6
 41
30.0
 62
     5
 63
     7
421
 16777215
 74
     1
 91
        4
 64
     7
 65
   257
 75
     1
175
     1
 42
1.0
 92
        0
 66
   257
 43
1.0
 76
     1
 77
     6
 78
     2
 67
     7
 79
     5
170
     0
171
     0
290
     0
174
     0
 93
        1
 44
0.0
173
     0
291
     0
 45
0.0
1001
ACAD
1000
AcDbSavedByObjectVersion
1070
     0
  0
VISUALSTYLE
  5
32
102
{ACAD_REACTORS
330
2A
102
}
102
{ACAD_XDICTIONARY
360
141
102
}
330
2A
100
AcDbVisualStyle
  2
Basic
 70
     7
 71
     1
 72
     0
 73
     1
 90
        0
 40
0.6
 41
30.0
 62
     5
 63
     7
421
 16777215
 74
     0
 91
        4
 64
     7
 65
   257
 75
     1
175
     1
 42
1.0
 92
        8
 66
     7
 43
1.0
 76
     1
 77
     6
 78
     2
 67
     7
 79
     5
170
     0
171
     0
290
     0
174
     0
 93
        1
 44
0.0
173
     0
291
     1
 45
0.0
1001
ACAD
1000
AcDbSavedByObjectVersion
1070
     0
  0
VISUALSTYLE
  5
36
102
{ACAD_REACTORS
330
2A
102
}
102
{ACAD_XDICTIONARY
360
149
102
}
330
2A
100
AcDbVisualStyle
  2
Brighten
 70
    12
 71
     2
 72
     2
 73
     0
 90
        0
 40
0.6
 41
30.0
 62
     5
 63
     7
421
 16777215
 74
     1
 91
        4
 64
     7
 65
   257
 75
     1
175
     1
 42
1.0
 92
        8
 66
     7
 43
1.0
 76
     1
 77
     6
 78
     2
 67
     7
 79
     5
170
     0
171
     0
290
     0
174
     0
 93
        1
 44
50.0
173
     0
291
     1
 45
0.0
1001
ACAD
1000
AcDbSavedByObjectVersion
1070
     0
  0
VISUALSTYLE
  5
3A
102
{ACAD_REACTORS
330
2A
102
}
102
{ACAD_XDICTIONARY
360
151
102
}
330
2A
100
AcDbVisualStyle
  2
ColorChange
 70
    16
 71
     2
 72
     2
 73
     3
 90
        0
 40
0.6
 41
30.0
 62
     5
 63
     8
421
  8421504
 74
     1
 91
        4
 64
     7
 65
   257
 75
     1
175
     1
 42
1.0
 92
        8
 66
     8
424
  8421504
 43
1.0
 76
     1
 77
     6
 78
     2
 67
     7
 79
     5
170
     0
171
     0
290
     0
174
     0
 93
        1
 44
0.0
173
     0
291
     1
 45
0.0
1001
ACAD
1000
AcDbSavedByObjectVersion
1070
     0
  0
VISUALSTYLE
  5
34
102
{ACAD_REACTORS
330
2A
102
}
102
{ACAD_XDICTIONARY
360
145
102
}
330
2A
100
AcDbVisualStyle
  2
Conceptual
 70
     9
 71
     3
 72
     2
 73
     0
 90
        0
 40
0.6
 41
30.0
 62
     5
 63
     7
421
 16777215
 74
     2
 91
        2
 64
     7
 65
   257
 75
     1
175
     1
 42
179.0
 92
        8
 66
     7
 43
1.0
 76
     1
 77
     6
 78
     2
 67
     7
 79
     3
170
     0
171
     0
290
     0
174
     0
 93
        1
 44
0.0
173
     0
291
     0
 45
0.0
1001
ACAD
1000
AcDbSavedByObjectVersion
1070
     0
  0
VISUALSTYLE
  5
35
102
{ACAD_REACTORS
330
2A
102
}
102
{ACAD_XDICTIONARY
360
147
102
}
330
2A
100
AcDbVisualStyle
  2
Dim
 70
    11
 71
     2
 72
     2
 73
     0
 90
        0
 40
0.6
 41
30.0
 62
     5
 63
     7
421
 16777215
 74
     1
 91
        4
 64
     7
 65
   257
 75
     1
175
     1
 42
1.0
 92
        8
 66
     7
 43
1.0
 76
     1
 77
     6
 78
     2
 67
     7
 79
     5
170
     0
171
     0
290
     0
174
     0
 93
        1
 44
-50.0
173
     0
291
     1
 45
0.0
1001
ACAD
1000
AcDbSavedByObjectVersion
1070
     0
  0
VISUALSTYLE
  5
3D
102
{ACAD_REACTORS
330
2A
102
}
102
{ACAD_XDICTIONARY
360
157
102
}
330
2A
100
AcDbVisualStyle
  2
EdgeColorOff
 70
    22
 71
     2
 72
     2
 73
     0
 90
        0
 40
0.6
 41
30.0
 62
     5
 63
     7
421
 16777215
 74
     1
 91
        4
 64
     7
 65
   257
 75
     1
175
     1
 42
1.0
 92
        8
 66
     7
 43
1.0
 76
     1
 77
     6
 78
     2
 67
     7
 79
     5
170
     0
171
     0
290
     0
174
     0
 93
        1
 44
0.0
173
     0
291
     1
 45
0.0
1001
ACAD
1000
AcDbSavedByObjectVersion
1070
     0
  0
VISUALSTYLE
  5
39
102
{ACAD_REACTORS
330
2A
102
}
102
{ACAD_XDICTIONARY
360
14F
102
}
330
2A
100
AcDbVisualStyle
  2
Facepattern
 70
    15
 71
     2
 72
     2
 73
     0
 90
        0
 40
0.6
 41
30.0
 62
     5
 63
     7
421
 16777215
 74
     1
 91
        4
 64
     7
 65
   257
 75
     1
175
     1
 42
1.0
 92
        8
 66
     7
 43
1.0
 76
     1
 77
     6
 78
     2
 67
     7
 79
     5
170
     0
171
     0
290
     0
174
     0
 93
        1
 44
0.0
173
     0
291
     1
 45
0.0
1001
ACAD
1000
AcDbSavedByObjectVersion
1070
     0
  0
VISUALSTYLE
  5
2B
102
{ACAD_REACTORS
330
2A
102
}
102
{ACAD_XDICTIONARY
360
133
102
}
330
2A
100
AcDbVisualStyle
  2
Flat
 70
     0
 71
     2
 72
     1
 73
     1
 90
        2
 40
0.6
 41
30.0
 62
     5
 63
     7
421
 16777215
 74
     0
 91
        0
 64
     7
 65
   257
 75
     1
175
     1
 42
1.0
 92
        8
 66
     7
 43
1.0
 76
     1
 77
     6
 78
     2
 67
     7
 79
     5
170
     0
171
     0
290
     0
174
     0
 93
       13
 44
0.0
173
     0
291
     1
 45
0.0
1001
ACAD
1000
AcDbSavedByObjectVersion
1070
     0
  0
VISUALSTYLE
  5
2C
102
{ACAD_REACTORS
330
2A
102
}
102
{ACAD_XDICTIONARY
360
135
102
}
330
2A
100
AcDbVisualStyle
  2
FlatWithEdges
 70
     1
 71
     2
 72
     1
 73
     1
 90
        2
 40
0.6
 41
30.0
 62
     5
 63
     7
421
 16777215
 74
     1
 91
        0
 64
     7
 65
   257
 75
     1
175
     1
 42
1.0
 92
        0
 66
   257
 43
1.0
 76
     1
 77
     6
 78
     2
 67
     7
 79
     5
170
     0
171
     0
290
     0
174
     0
 93
       13
 44
0.0
173
     0
291
     1
 45
0.0
1001
ACAD
1000
AcDbSavedByObjectVersion
1070
     0
  0
VISUALSTYLE
  5
2D
102
{ACAD_REACTORS
330
2A
102
}
102
{ACAD_XDICTIONARY
360
137
102
}
330
2A
100
AcDbVisualStyle
  2
Gouraud
 70
     2
 71
     2
 72
     2
 73
     1
 90
        2
 40
0.6
 41
30.0
 62
     5
 63
     7
421
 16777215
 74
     0
 91
        0
 64
     7
 65
   257
 75
     1
175
     1
 42
1.0
 92
        0
 66
     7
 43
1.0
 76
     1
 77
     6
 78
     2
 67
     7
 79
     5
170
     0
171
     0
290
     0
174
     0
 93
       13
 44
0.0
173
     0
291
     1
 45
0.0
1001
ACAD
1000
AcDbSavedByObjectVersion
1070
     0
  0
VISUALSTYLE
  5
2E
102
{ACAD_REACTORS
330
2A
102
}
102
{ACAD_XDICTIONARY
360
139
102
}
330
2A
100
AcDbVisualStyle
  2
GouraudWithEdges
 70
     3
 71
     2
 72
     2
 73
     1
 90
        2
 40
0.6
 41
30.0
 62
     5
 63
     7
421
 16777215
 74
     1
 91
        0
 64
     7
 65
   257
 75
     1
175
     1
 42
1.0
 92
        0
 66
   257
 43
1.0
 76
     1
 77
     6
 78
     2
 67
     7
 79
     5
170
     0
171
     0
290
     0
174
     0
 93
       13
 44
0.0
173
     0
291
     1
 45
0.0
1001
ACAD
1000
AcDbSavedByObjectVersion
1070
     0
  0
VISUALSTYLE
  5
31
102
{ACAD_REACTORS
330
2A
102
}
102
{ACAD_XDICTIONARY
360
13F
102
}
330
2A
100
AcDbVisualStyle
  2
Hidden
 70
     6
 71
     1
 72
     2
 73
     2
 90
        0
 40
0.6
 41
30.0
 62
     5
 63
     7
421
 16777215
 74
     2
 91
        2
 64
     7
 65
   257
 75
     2
175
     1
 42
40.0
 92
        0
 66
   257
 43
1.0
 76
     1
 77
     6
 78
     2
 67
     7
 79
     3
170
     0
171
     0
290
     0
174
     0
 93
        1
 44
0.0
173
     0
291
     0
 45
0.0
1001
ACAD
1000
AcDbSavedByObjectVersion
1070
     0
  0
VISUALSTYLE
  5
3B
102
{ACAD_REACTORS
330
2A
102
}
102
{ACAD_XDICTIONARY
360
153
102
}
330
2A
100
AcDbVisualStyle
  2
JitterOff
 70
    20
 71
     2
 72
     2
 73
     0
 90
        0
 40
0.6
 41
30.0
 62
     5
 63
     7
421
 16777215
 74
     1
 91
        4
 64
     7
 65
   257
 75
     1
175
     1
 42
1.0
 92
       10
 66
     7
 43
1.0
 76
     1
 77
     6
 78
     2
 67
     7
 79
     5
170
     0
171
     0
290
     0
174
     0
 93
        1
 44
0.0
173
     0
291
     1
 45
0.0
1001
ACAD
1000
AcDbSavedByObjectVersion
1070
     0
  0
VISUALSTYLE
  5
38
102
{ACAD_REACTORS
330
2A
102
}
102
{ACAD_XDICTIONARY
360
14D
102
}
330
2A
100
AcDbVisualStyle
  2
Linepattern
 70
    14
 71
     2
 72
     2
 73
     0
 90
        0
 40
0.6
 41
30.0
 62
     5
 63
     7
421
 16777215
 74
     1
 91
        4
 64
     7
 65
   257
 75
     7
175
     7
 42
1.0
 92
        8
 66
     7
 43
1.0
 76
     1
 77
     6
 78
     2
 67
     7
 79
     5
170
     0
171
     0
290
     0
174
     0
 93
        1
 44
0.0
173
     0
291
     1
 45
0.0
1001
ACAD
1000
AcDbSavedByObjectVersion
1070
     0
  0
VISUALSTYLE
  5
3C
102
{ACAD_REACTORS
330
2A
102
}
102
{ACAD_XDICTIONARY
360
155
102
}
330
2A
100
AcDbVisualStyle
  2
OverhangOff
 70
    21
 71
     2
 72
     2
 73
     0
 90
        0
 40
0.6
 41
30.0
 62
     5
 63
     7
421
 16777215
 74
     1
 91
        4
 64
     7
 65
   257
 75
     1
175
     1
 42
1.0
 92
        9
 66
     7
 43
1.0
 76
     1
 77
     6
 78
     2
 67
     7
 79
     5
170
     0
171
     0
290
     0
174
     0
 93
        1
 44
0.0
173
     0
291
     1
 45
0.0
1001
ACAD
1000
AcDbSavedByObjectVersion
1070
     0
  0
VISUALSTYLE
  5
33
102
{ACAD_REACTORS
330
2A
102
}
102
{ACAD_XDICTIONARY
360
143
102
}
330
2A
100
AcDbVisualStyle
  2
Realistic
 70
     8
 71
     2
 72
     3
 73
     0
 90
        2
 40
0.6
 41
30.0
 62
     5
 63
     7
421
 16777215
 74
     0
 91
        0
 64
     7
 65
   257
 75
     1
175
     1
 42
1.0
 92
        8
 66
   257
 43
1.0
 76
     1
 77
     6
 78
     2
 67
     7
 79
     3
170
     0
171
     0
290
     0
174
     0
 93
       13
 44
0.0
173
     0
291
     0
 45
0.0
1001
ACAD
1000
AcDbSavedByObjectVersion
1070
     0
  0
VISUALSTYLE
  5
42
102
{ACAD_REACTORS
330
2A
102
}
102
{ACAD_XDICTIONARY
360
161
102
}
330
2A
100
AcDbVisualStyle
  2
Shaded
 70
    27
 71
     2
 72
     2
 73
     1
 90
        2
 40
0.6
 41
30.0
 62
     5
 63
     7
421
 16777215
 74
     0
 91
        4
 64
     7
 65
   257
 75
     1
175
     1
 42
1.0
 92
        8
 66
   257
 43
1.0
 76
     1
 77
     6
 78
     2
 67
     8
425
  7895160
 79
     3
170
     0
171
     0
290
     0
174
     0
 93
        5
 44
0.0
173
     0
291
     0
 45
0.0
1001
ACAD
1000
AcDbSavedByObjectVersion
1070
     0
  0
VISUALSTYLE
  5
41
102
{ACAD_REACTORS
330
2A
102
}
102
{ACAD_XDICTIONARY
360
15F
102
}
330
2A
100
AcDbVisualStyle
  2
Shaded with edges
 70
    26
 71
     2
 72
     2
 73
     1
 90
        2
 40
0.6
 41
30.0
 62
     5
 63
     7
421
 16777215
 74
     1
 91
       10
 64
     7
 65
   257
 75
     2
175
     1
 42
1.0
 92
        8
 66
   257
 43
1.0
 76
     1
 77
     6
 78
     2
 67
     7
 79
     3
170
     0
171
     0
290
     0
174
     0
 93
        5
 44
0.0
173
     0
291
     0
 45
0.0
1001
ACAD
1000
AcDbSavedByObjectVersion
1070
     0
  0
VISUALSTYLE
  5
3E
102
{ACAD_REACTORS
330
2A
102
}
102
{ACAD_XDICTIONARY
360
159
102
}
330
2A
100
AcDbVisualStyle
  2
Shades of Gray
 70
    23
 71
     2
 72
     2
 73
     3
 90
        0
 40
0.6
 41
30.0
 62
     5
 63
     7
421
 16777215
 74
     2
 91
        2
 64
     7
 65
     7
 75
     1
175
     1
 42
40.0
 92
        8
 66
     7
 43
1.0
 76
     1
 77
     6
 78
     2
 67
     7
 79
     3
170
     0
171
     0
290
     0
174
     0
 93
        1
 44
0.0
173
     0
291
     0
 45
0.0
1001
ACAD
1000
AcDbSavedByObjectVersion
1070
     0
  0
VISUALSTYLE
  5
3F
102
{ACAD_REACTORS
330
2A
102
}
102
{ACAD_XDICTIONARY
360
15B
102
}
330
2A
100
AcDbVisualStyle
  2
Sketchy
 70
    24
 71
     1
 72
     2
 73
     2
 90
        0
 40
0.6
 41
30.0
 62
     5
 63
     7
421
 16777215
 74
     2
 91
        2
 64
     7
 65
     7
 75
     1
175
     1
 42
40.0
 92
       11
 66
     7
 43
1.0
 76
     1
 77
     6
 78
     2
 67
     7
 79
     6
170
     0
171
     0
290
     0
174
     0
 93
        1
 44
0.0
173
     0
291
     0
 45
0.0
1001
ACAD
1000
AcDbSavedByObjectVersion
1070
     0
  0
VISUALSTYLE
  5
37
102
{ACAD_REACTORS
330
2A
102
}
102
{ACAD_XDICTIONARY
360
14B
102
}
330
2A
100
AcDbVisualStyle
  2
Thicken
 70
    13
 71
     2
 72
     2
 73
     0
 90
        0
 40
0.6
 41
30.0
 62
     5
 63
     7
421
 16777215
 74
     1
 91
        4
 64
     7
 65
   257
 75
     1
175
     1
 42
1.0
 92
       12
 66
     7
 43
1.0
 76
     1
 77
     6
 78
     2
 67
     7
 79
     5
170
     0
171
     0
290
     0
174
     0
 93
        1
 44
0.0
173
     0
291
     1
 45
0.0
1001
ACAD
1000
AcDbSavedByObjectVersion
1070
     0
  0
VISUALSTYLE
  5
30
102
{ACAD_REACTORS
330
2A
102
}
102
{ACAD_XDICTIONARY
360
13D
102
}
330
2A
100
AcDbVisualStyle
  2
Wireframe
 70
     5
 71
     0
 72
     2
 73
     0
 90
        0
 40
0.6
 41
30.0
 62
     5
 63
     7
421
 16777215
 74
     1
 91
        4
 64
     7
 65
   257
 75
     1
175
     1
 42
1.0
 92
        0
 66
   257
 43
1.0
 76
     1
 77
     6
 78
     2
 67
     7
 79
     3
170
     0
171
     0
290
     0
174
     0
 93
        1
 44
0.0
173
     0
291
     0
 45
0.0
1001
ACAD
1000
AcDbSavedByObjectVersion
1070
     0
  0
VISUALSTYLE
  5
40
102
{ACAD_REACTORS
330
2A
102
}
102
{ACAD_XDICTIONARY
360
15D
102
}
330
2A
100
AcDbVisualStyle
  2
X-Ray
 70
    25
 71
     2
 72
     2
 73
     1
 90
        1
 40
0.5
 41
30.0
 62
     5
 63
     7
421
 16777215
 74
     1
 91
        0
 64
     7
 65
   257
 75
     1
175
     1
 42
1.0
 92
        8
 66
     7
 43
1.0
 76
     1
 77
     6
 78
     2
 67
     7
 79
     3
170
     0
171
     0
290
     0
174
     0
 93
       13
 44
0.0
173
     0
291
     0
 45
0.0
1001
ACAD
1000
AcDbSavedByObjectVersion
1070
     0
  0
DICTIONARYVAR
  5
130
102
{ACAD_REACTORS
330
12F
102
}
330
12F
100
DictionaryVariables
280
     0
  1
1:1
  0
DICTIONARYVAR
  5
171
102
{ACAD_REACTORS
330
12F
102
}
330
12F
100
DictionaryVariables
280
     0
  1
Standard
  0
DICTIONARYVAR
  5
170
102
{ACAD_REACTORS
330
12F
102
}
330
12F
100
DictionaryVariables
280
     0
  1
Standard
  0
DICTIONARYVAR
  5
131
102
{ACAD_REACTORS
330
12F
102
}
330
12F
100
DictionaryVariables
280
     0
  1
1
  0
DICTIONARYVAR
  5
132
102
{ACAD_REACTORS
330
12F
102
}
330
12F
100
DictionaryVariables
280
     0
  1
2
  0
DICTIONARY
  5
165
330
45
100
AcDbDictionary
280
     1
281
     1
  3
ACAD_XREC_ROUNDTRIP
360
166
  0
DICTIONARY
  5
163
330
44
100
AcDbDictionary
280
     1
281
     1
  3
ACAD_XREC_ROUNDTRIP
360
164
  0
DICTIONARY
  5
167
330
46
100
AcDbDictionary
280
     1
281
     1
  3
ACAD_XREC_ROUNDTRIP
360
168
  0
DICTIONARY
  5
16D
330
6C
100
AcDbDictionary
280
     1
281
     1
  3
ACAD_XREC_ROUNDTRIP
360
16E
  0
DICTIONARY
  5
169
330
6A
100
AcDbDictionary
280
     1
281
     1
  3
ACAD_ROUNDTRIP_2008_TABLESTYLE_CELLSTYLEMAP
360
16B
  3
ACAD_XREC_ROUNDTRIP
360
16A
  0
DICTIONARY
  5
13B
330
2F
100
AcDbDictionary
280
     1
281
     1
  3
ACAD_XREC_ROUNDTRIP
360
13C
  0
DICTIONARY
  5
141
330
32
100
AcDbDictionary
280
     1
281
     1
  3
ACAD_XREC_ROUNDTRIP
360
142
  0
DICTIONARY
  5
149
330
36
100
AcDbDictionary
280
     1
281
     1
  3
ACAD_XREC_ROUNDTRIP
360
14A
  0
DICTIONARY
  5
151
330
3A
100
AcDbDictionary
280
     1
281
     1
  3
ACAD_XREC_ROUNDTRIP
360
152
  0
DICTIONARY
  5
145
330
34
100
AcDbDictionary
280
     1
281
     1
  3
ACAD_XREC_ROUNDTRIP
360
146
  0
DICTIONARY
  5
147
330
35
100
AcDbDictionary
280
     1
281
     1
  3
ACAD_XREC_ROUNDTRIP
360
148
  0
DICTIONARY
  5
157
330
3D
100
AcDbDictionary
280
     1
281
     1
  3
ACAD_XREC_ROUNDTRIP
360
158
  0
DICTIONARY
  5
14F
330
39
100
AcDbDictionary
280
     1
281
     1
  3
ACAD_XREC_ROUNDTRIP
360
150
  0
DICTIONARY
  5
133
330
2B
100
AcDbDictionary
280
     1
281
     1
  3
ACAD_XREC_ROUNDTRIP
360
134
  0
DICTIONARY
  5
135
330
2C
100
AcDbDictionary
280
     1
281
     1
  3
ACAD_XREC_ROUNDTRIP
360
136
  0
DICTIONARY
  5
137
330
2D
100
AcDbDictionary
280
     1
281
     1
  3
ACAD_XREC_ROUNDTRIP
360
138
  0
DICTIONARY
  5
139
330
2E
100
AcDbDictionary
280
     1
281
     1
  3
ACAD_XREC_ROUNDTRIP
360
13A
  0
DICTIONARY
  5
13F
330
31
100
AcDbDictionary
280
     1
281
     1
  3
ACAD_XREC_ROUNDTRIP
360
140
  0
DICTIONARY
  5
153
330
3B
100
AcDbDictionary
280
     1
281
     1
  3
ACAD_XREC_ROUNDTRIP
360
154
  0
DICTIONARY
  5
14D
330
38
100
AcDbDictionary
280
     1
281
     1
  3
ACAD_XREC_ROUNDTRIP
360
14E
  0
DICTIONARY
  5
155
330
3C
100
AcDbDictionary
280
     1
281
     1
  3
ACAD_XREC_ROUNDTRIP
360
156
  0
DICTIONARY
  5
143
330
33
100
AcDbDictionary
280
     1
281
     1
  3
ACAD_XREC_ROUNDTRIP
360
144
  0
DICTIONARY
  5
161
330
42
100
AcDbDictionary
280
     1
281
     1
  3
ACAD_XREC_ROUNDTRIP
360
162
  0
DICTIONARY
  5
15F
330
41
100
AcDbDictionary
280
     1
281
     1
  3
ACAD_XREC_ROUNDTRIP
360
160
  0
DICTIONARY
  5
159
330
3E
100
AcDbDictionary
280
     1
281
     1
  3
ACAD_XREC_ROUNDTRIP
360
15A
  0
DICTIONARY
  5
15B
330
3F
100
AcDbDictionary
280
     1
281
     1
  3
ACAD_XREC_ROUNDTRIP
360
15C
  0
DICTIONARY
  5
14B
330
37
100
AcDbDictionary
280
     1
281
     1
  3
ACAD_XREC_ROUNDTRIP
360
14C
  0
DICTIONARY
  5
13D
330
30
100
AcDbDictionary
280
     1
281
     1
  3
ACAD_XREC_ROUNDTRIP
360
13E
  0
DICTIONARY
  5
15D
330
40
100
AcDbDictionary
280
     1
281
     1
  3
ACAD_XREC_ROUNDTRIP
360
15E
  0
XRECORD
  5
166
102
{ACAD_REACTORS
330
165
102
}
330
165
100
AcDbXrecord
280
     1
102
MATERIAL
148
0.0
149
0.0
149
0.0
 93
        0
 94
      127
282
     0
 72
     1
 77
     1
171
     1
175
     1
179
     1
273
     0
  0
XRECORD
  5
164
102
{ACAD_REACTORS
330
163
102
}
330
163
100
AcDbXrecord
280
     1
102
MATERIAL
148
0.0
149
0.0
149
0.0
 93
        0
 94
      127
282
     0
 72
     1
 77
     1
171
     1
175
     1
179
     1
273
     0
  0
XRECORD
  5
168
102
{ACAD_REACTORS
330
167
102
}
330
167
100
AcDbXrecord
280
     1
102
MATERIAL
148
0.0
149
0.0
149
0.0
 93
        0
 94
      127
282
     0
 72
     1
 77
     1
171
     1
175
     1
179
     1
273
     0
  0
XRECORD
  5
16E
102
{ACAD_REACTORS
330
16D
102
}
330
16D
100
AcDbXrecord
280
     1
102
ACAD_ROUNDTRIP_2010_MLEADER_STYLE
  0
CELLSTYLEMAP
  5
16B
102
{ACAD_REACTORS
330
169
102
}
330
169
100
AcDbCellStyleMap
 90
        3
300
CELLSTYLE
  1
TABLEFORMAT_BEGIN
 90
        5
170
     1
 91
        0
 92
    32768
 62
   257
 93
        1
300
CONTENTFORMAT
  1
CONTENTFORMAT_BEGIN
 90
        0
 91
        0
 92
        4
 93
        0
300

 40
0.0
140
1.0
 94
        5
 62
     0
340
11
144
0.25
309
CONTENTFORMAT_END
171
     1
301
MARGIN
  1
CELLMARGIN_BEGIN
 40
0.06
 40
0.06
 40
0.06
 40
0.06
 40
0.06
 40
0.06
309
CELLMARGIN_END
 94
        6
 95
        1
302
GRIDFORMAT
  1
GRIDFORMAT_BEGIN
 90
        0
 91
        1
 62
     0
 92
       -2
340
14
 93
        0
 40
0.045
309
GRIDFORMAT_END
 95
        2
302
GRIDFORMAT
  1
GRIDFORMAT_BEGIN
 90
        0
 91
        1
 62
     0
 92
       -2
340
14
 93
        0
 40
0.045
309
GRIDFORMAT_END
 95
        4
302
GRIDFORMAT
  1
GRIDFORMAT_BEGIN
 90
        0
 91
        1
 62
     0
 92
       -2
340
14
 93
        0
 40
0.045
309
GRIDFORMAT_END
 95
        8
302
GRIDFORMAT
  1
GRIDFORMAT_BEGIN
 90
        0
 91
        1
 62
     0
 92
       -2
340
14
 93
        0
 40
0.045
309
GRIDFORMAT_END
 95
       16
302
GRIDFORMAT
  1
GRIDFORMAT_BEGIN
 90
        0
 91
        1
 62
     0
 92
       -2
340
14
 93
        0
 40
0.045
309
GRIDFORMAT_END
 95
       32
302
GRIDFORMAT
  1
GRIDFORMAT_BEGIN
 90
        0
 91
        1
 62
     0
 92
       -2
340
14
 93
        0
 40
0.045
309
GRIDFORMAT_END
309
TABLEFORMAT_END
  1
CELLSTYLE_BEGIN
 90
        1
 91
        1
300
_TITLE
309
CELLSTYLE_END
300
CELLSTYLE
  1
TABLEFORMAT_BEGIN
 90
        5
170
     1
 91
        0
 92
        0
 62
   257
 93
        1
300
CONTENTFORMAT
  1
CONTENTFORMAT_BEGIN
 90
        0
 91
        0
 92
        4
 93
        0
300

 40
0.0
140
1.0
 94
        5
 62
     0
340
11
144
0.18
309
CONTENTFORMAT_END
171
     1
301
MARGIN
  1
CELLMARGIN_BEGIN
 40
0.06
 40
0.06
 40
0.06
 40
0.06
 40
0.06
 40
0.06
309
CELLMARGIN_END
 94
        6
 95
        1
302
GRIDFORMAT
  1
GRIDFORMAT_BEGIN
 90
        0
 91
        1
 62
     0
 92
       -2
340
14
 93
        0
 40
0.045
309
GRIDFORMAT_END
 95
        2
302
GRIDFORMAT
  1
GRIDFORMAT_BEGIN
 90
        0
 91
        1
 62
     0
 92
       -2
340
14
 93
        0
 40
0.045
309
GRIDFORMAT_END
 95
        4
302
GRIDFORMAT
  1
GRIDFORMAT_BEGIN
 90
        0
 91
        1
 62
     0
 92
       -2
340
14
 93
        0
 40
0.045
309
GRIDFORMAT_END
 95
        8
302
GRIDFORMAT
  1
GRIDFORMAT_BEGIN
 90
        0
 91
        1
 62
     0
 92
       -2
340
14
 93
        0
 40
0.045
309
GRIDFORMAT_END
 95
       16
302
GRIDFORMAT
  1
GRIDFORMAT_BEGIN
 90
        0
 91
        1
 62
     0
 92
       -2
340
14
 93
        0
 40
0.045
309
GRIDFORMAT_END
 95
       32
302
GRIDFORMAT
  1
GRIDFORMAT_BEGIN
 90
        0
 91
        1
 62
     0
 92
       -2
340
14
 93
        0
 40
0.045
309
GRIDFORMAT_END
309
TABLEFORMAT_END
  1
CELLSTYLE_BEGIN
 90
        2
 91
        1
300
_HEADER
309
CELLSTYLE_END
300
CELLSTYLE
  1
TABLEFORMAT_BEGIN
 90
        5
170
     1
 91
        0
 92
        0
 62
   257
 93
        1
300
CONTENTFORMAT
  1
CONTENTFORMAT_BEGIN
 90
        0
 91
        0
 92
        4
 93
        0
300

 40
0.0
140
1.0
 94
        2
 62
     0
340
11
144
0.18
309
CONTENTFORMAT_END
171
     1
301
MARGIN
  1
CELLMARGIN_BEGIN
 40
0.06
 40
0.06
 40
0.06
 40
0.06
 40
0.06
 40
0.06
309
CELLMARGIN_END
 94
        6
 95
        1
302
GRIDFORMAT
  1
GRIDFORMAT_BEGIN
 90
        0
 91
        1
 62
     0
 92
       -2
340
14
 93
        0
 40
0.045
309
GRIDFORMAT_END
 95
        2
302
GRIDFORMAT
  1
GRIDFORMAT_BEGIN
 90
        0
 91
        1
 62
     0
 92
       -2
340
14
 93
        0
 40
0.045
309
GRIDFORMAT_END
 95
        4
302
GRIDFORMAT
  1
GRIDFORMAT_BEGIN
 90
        0
 91
        1
 62
     0
 92
       -2
340
14
 93
        0
 40
0.045
309
GRIDFORMAT_END
 95
        8
302
GRIDFORMAT
  1
GRIDFORMAT_BEGIN
 90
        0
 91
        1
 62
     0
 92
       -2
340
14
 93
        0
 40
0.045
309
GRIDFORMAT_END
 95
       16
302
GRIDFORMAT
  1
GRIDFORMAT_BEGIN
 90
        0
 91
        1
 62
     0
 92
       -2
340
14
 93
        0
 40
0.045
309
GRIDFORMAT_END
 95
       32
302
GRIDFORMAT
  1
GRIDFORMAT_BEGIN
 90
        0
 91
        1
 62
     0
 92
       -2
340
14
 93
        0
 40
0.045
309
GRIDFORMAT_END
309
TABLEFORMAT_END
  1
CELLSTYLE_BEGIN
 90
        3
 91
        2
300
_DATA
309
CELLSTYLE_END
  0
XRECORD
  5
16A
102
{ACAD_REACTORS
330
169
102
}
330
169
100
AcDbXrecord
280
     1
102
ACAD_ROUNDTRIP_PRE2007_TABLESTYLE
 90
        4
 91
        0
  1

 92
        4
 93
        0
  2

 94
        4
 95
        0
  3

  0
XRECORD
  5
13C
102
{ACAD_REACTORS
330
13B
102
}
330
13B
100
AcDbXrecord
280
     1
102
RTVSPropertyOp0
 70
     1
102
RTVSPropertyOp1
 70
     1
102
RTVSPropertyOp2
 70
     1
102
RTVSPropertyOp3
 70
     1
102
RTVSPropertyOp4
 70
     1
102
RTVSPropertyOp5
 70
     1
102
RTVSPropertyOp6
 70
     1
102
RTVSPropertyOp7
 70
     1
102
RTVSPropertyOp8
 70
     1
102
RTVSPropertyOp9
 70
     1
102
RTVSPropertyOp10
 70
     1
102
RTVSPropertyOp11
 70
     1
102
RTVSPropertyOp12
 70
     1
102
RTVSPropertyOp13
 70
     1
102
RTVSPropertyOp14
 70
     1
102
RTVSPropertyOp15
 70
     1
102
RTVSPropertyOp16
 70
     1
102
RTVSPropertyOp17
 70
     1
102
RTVSPropertyOp18
 70
     1
102
RTVSPropertyOp19
 70
     1
102
RTVSPropertyOp20
 70
     1
102
RTVSPropertyOp21
 70
     1
102
RTVSPropertyOp22
 70
     1
102
RTVSPropertyOp23
 70
     1
102
RTVSPropertyOp24
 70
     1
102
RTVSPropertyOp25
 70
     1
102
RTVSPropertyOp26
 70
     1
102
RTVSPropertyOp27
 70
     1
102
RTVSPropertyOp28
 70
     1
102
RTVSPropertyOp29
 70
     1
102
RTVSPropertyOp30
 70
     1
102
RTVSPropertyOp31
 70
     1
102
RTVSPropertyOp32
 70
     1
102
RTVSPropertyOp33
 70
     1
102
RTVSPropertyOp34
 70
     1
102
RTVSPropertyOp35
 70
     1
102
RTVSPropertyOp36
 70
     1
102
RTVSPropertyOp37
 70
     1
102
RTVSPropertyOp38
 70
     1
102
RTVSPropertyOp39
 70
     1
102
RTVSPropertyOp40
 70
     1
102
RTVSPropertyOp41
 70
     1
102
RTVSPropertyOp42
 70
     1
102
RTVSPropertyOp43
 70
     1
102
RTVSPropertyOp44
 70
     1
102
RTVSPropertyOp45
 70
     1
102
RTVSPropertyOp46
 70
     1
102
RTVSPropertyOp47
 70
     1
102
RTVSPropertyOp48
 70
     1
102
RTVSPropertyOp49
 70
     1
102
RTVSPropertyOp50
 70
     1
102
RTVSPropertyOp51
 70
     0
102
RTVSPropertyOp52
 70
     0
102
RTVSPropertyOp53
 70
     1
102
RTVSPropertyOp54
 70
     1
102
RTVSPropertyOp55
 70
     1
102
RTVSPropertyOp56
 70
     1
102
RTVSPropertyOp57
 70
     1
102
RTVSPost2010Prop28
280
     1
102
RTVSPost2010PropOp28
 70
     1
102
RTVSPost2010Prop29
280
     1
102
RTVSPost2010PropOp29
 70
     1
102
RTVSPost2010Prop30
280
     0
102
RTVSPost2010PropOp30
 70
     1
102
RTVSPost2010Prop31
280
     0
102
RTVSPost2010PropOp31
 70
     1
102
RTVSPost2010Prop32
280
     0
102
RTVSPost2010PropOp32
 70
     1
102
RTVSPost2010Prop33
280
     0
102
RTVSPost2010PropOp33
 70
     1
102
RTVSPost2010Prop34
280
     0
102
RTVSPost2010PropOp34
 70
     1
102
RTVSPost2010Prop35
280
     0
102
RTVSPost2010PropOp35
 70
     1
102
RTVSPost2010Prop36
280
     0
102
RTVSPost2010PropOp36
 70
     1
102
RTVSPost2010Prop37
 90
       50
102
RTVSPost2010PropOp37
 70
     1
102
RTVSPost2010Prop38
140
0.0
102
RTVSPost2010PropOp38
 70
     1
102
RTVSPost2010Prop39
140
1.0
102
RTVSPost2010PropOp39
 70
     1
102
RTVSPost2010Prop40
 90
        0
102
RTVSPost2010PropOp40
 70
     1
102
RTVSPost2010Prop41ColorIndex
 90
       18
102
RTVSPost2010Prop41ColorRGB
 90
        0
102
RTVSPost2010PropOp41
 70
     1
102
RTVSPost2010Prop42
 90
       50
102
RTVSPost2010PropOp42
 70
     1
102
RTVSPost2010Prop43
 90
        3
102
RTVSPost2010PropOp43
 70
     1
102
RTVSPost2010Prop44ColorIndex
 90
        5
102
RTVSPost2010Prop44ColorRGB
 90
      255
102
RTVSPost2010PropOp44
 70
     1
102
RTVSPost2010Prop45
280
     0
102
RTVSPost2010PropOp45
 70
     1
102
RTVSPost2010Prop46
 90
       50
102
RTVSPost2010PropOp46
 70
     1
102
RTVSPost2010Prop47
 90
       50
102
RTVSPost2010PropOp47
 70
     1
102
RTVSPost2010Prop48
 90
       50
102
RTVSPost2010PropOp48
 70
     1
102
RTVSPost2010Prop49
280
     0
102
RTVSPost2010PropOp49
 70
     1
102
RTVSPost2010Prop50
 90
       50
102
RTVSPost2010PropOp50
 70
     1
102
RTVSPost2010Prop51ColorIndex
 90
      256
102
RTVSPost2010Prop51ColorRGB
 90
-16777216
102
RTVSPost2010PropOp51
 70
     0
102
RTVSPost2010Prop52
140
1.0
102
RTVSPost2010PropOp52
 70
     0
102
RTVSPost2010Prop53
 90
        2
102
RTVSPost2010PropOp53
 70
     1
102
RTVSPost2010Prop54
  1
strokes_ogs.tif
102
RTVSPost2010PropOp54
 70
     1
102
RTVSPost2010Prop55
280
     0
102
RTVSPost2010PropOp55
 70
     1
102
RTVSPost2010Prop56
140
1.0
102
RTVSPost2010PropOp56
 70
     1
102
RTVSPost2010Prop57
140
1.0
102
RTVSPost2010PropOp57
 70
     1
  0
XRECORD
  5
142
102
{ACAD_REACTORS
330
141
102
}
330
141
100
AcDbXrecord
280
     1
102
RTVSPropertyOp0
 70
     1
102
RTVSPropertyOp1
 70
     1
102
RTVSPropertyOp2
 70
     1
102
RTVSPropertyOp3
 70
     1
102
RTVSPropertyOp4
 70
     1
102
RTVSPropertyOp5
 70
     1
102
RTVSPropertyOp6
 70
     1
102
RTVSPropertyOp7
 70
     1
102
RTVSPropertyOp8
 70
     1
102
RTVSPropertyOp9
 70
     1
102
RTVSPropertyOp10
 70
     1
102
RTVSPropertyOp11
 70
     1
102
RTVSPropertyOp12
 70
     1
102
RTVSPropertyOp13
 70
     1
102
RTVSPropertyOp14
 70
     1
102
RTVSPropertyOp15
 70
     1
102
RTVSPropertyOp16
 70
     1
102
RTVSPropertyOp17
 70
     1
102
RTVSPropertyOp18
 70
     1
102
RTVSPropertyOp19
 70
     1
102
RTVSPropertyOp20
 70
     1
102
RTVSPropertyOp21
 70
     1
102
RTVSPropertyOp22
 70
     1
102
RTVSPropertyOp23
 70
     1
102
RTVSPropertyOp24
 70
     1
102
RTVSPropertyOp25
 70
     1
102
RTVSPropertyOp26
 70
     1
102
RTVSPropertyOp27
 70
     1
102
RTVSPropertyOp28
 70
     1
102
RTVSPropertyOp29
 70
     1
102
RTVSPropertyOp30
 70
     1
102
RTVSPropertyOp31
 70
     1
102
RTVSPropertyOp32
 70
     1
102
RTVSPropertyOp33
 70
     1
102
RTVSPropertyOp34
 70
     1
102
RTVSPropertyOp35
 70
     1
102
RTVSPropertyOp36
 70
     1
102
RTVSPropertyOp37
 70
     1
102
RTVSPropertyOp38
 70
     1
102
RTVSPropertyOp39
 70
     1
102
RTVSPropertyOp40
 70
     1
102
RTVSPropertyOp41
 70
     1
102
RTVSPropertyOp42
 70
     1
102
RTVSPropertyOp43
 70
     1
102
RTVSPropertyOp44
 70
     1
102
RTVSPropertyOp45
 70
     1
102
RTVSPropertyOp46
 70
     1
102
RTVSPropertyOp47
 70
     1
102
RTVSPropertyOp48
 70
     1
102
RTVSPropertyOp49
 70
     1
102
RTVSPropertyOp50
 70
     1
102
RTVSPropertyOp51
 70
     0
102
RTVSPropertyOp52
 70
     0
102
RTVSPropertyOp53
 70
     1
102
RTVSPropertyOp54
 70
     1
102
RTVSPropertyOp55
 70
     1
102
RTVSPropertyOp56
 70
     1
102
RTVSPropertyOp57
 70
     1
102
RTVSPost2010Prop28
280
     0
102
RTVSPost2010PropOp28
 70
     1
102
RTVSPost2010Prop29
280
     1
102
RTVSPost2010PropOp29
 70
     1
102
RTVSPost2010Prop30
280
     1
102
RTVSPost2010PropOp30
 70
     1
102
RTVSPost2010Prop31
280
     0
102
RTVSPost2010PropOp31
 70
     1
102
RTVSPost2010Prop32
280
     0
102
RTVSPost2010PropOp32
 70
     1
102
RTVSPost2010Prop33
280
     0
102
RTVSPost2010PropOp33
 70
     1
102
RTVSPost2010Prop34
280
     0
102
RTVSPost2010PropOp34
 70
     1
102
RTVSPost2010Prop35
280
     0
102
RTVSPost2010PropOp35
 70
     1
102
RTVSPost2010Prop36
280
     0
102
RTVSPost2010PropOp36
 70
     1
102
RTVSPost2010Prop37
 90
       50
102
RTVSPost2010PropOp37
 70
     1
102
RTVSPost2010Prop38
140
0.0
102
RTVSPost2010PropOp38
 70
     1
102
RTVSPost2010Prop39
140
1.0
102
RTVSPost2010PropOp39
 70
     1
102
RTVSPost2010Prop40
 90
        0
102
RTVSPost2010PropOp40
 70
     1
102
RTVSPost2010Prop41ColorIndex
 90
       18
102
RTVSPost2010Prop41ColorRGB
 90
        0
102
RTVSPost2010PropOp41
 70
     1
102
RTVSPost2010Prop42
 90
       50
102
RTVSPost2010PropOp42
 70
     1
102
RTVSPost2010Prop43
 90
        3
102
RTVSPost2010PropOp43
 70
     1
102
RTVSPost2010Prop44ColorIndex
 90
        5
102
RTVSPost2010Prop44ColorRGB
 90
      255
102
RTVSPost2010PropOp44
 70
     1
102
RTVSPost2010Prop45
280
     0
102
RTVSPost2010PropOp45
 70
     1
102
RTVSPost2010Prop46
 90
       50
102
RTVSPost2010PropOp46
 70
     1
102
RTVSPost2010Prop47
 90
       50
102
RTVSPost2010PropOp47
 70
     1
102
RTVSPost2010Prop48
 90
       50
102
RTVSPost2010PropOp48
 70
     1
102
RTVSPost2010Prop49
280
     0
102
RTVSPost2010PropOp49
 70
     1
102
RTVSPost2010Prop50
 90
       50
102
RTVSPost2010PropOp50
 70
     1
102
RTVSPost2010Prop51ColorIndex
 90
      256
102
RTVSPost2010Prop51ColorRGB
 90
-16777216
102
RTVSPost2010PropOp51
 70
     0
102
RTVSPost2010Prop52
140
1.0
102
RTVSPost2010PropOp52
 70
     0
102
RTVSPost2010Prop53
 90
        2
102
RTVSPost2010PropOp53
 70
     1
102
RTVSPost2010Prop54
  1
strokes_ogs.tif
102
RTVSPost2010PropOp54
 70
     1
102
RTVSPost2010Prop55
280
     0
102
RTVSPost2010PropOp55
 70
     1
102
RTVSPost2010Prop56
140
1.0
102
RTVSPost2010PropOp56
 70
     1
102
RTVSPost2010Prop57
140
1.0
102
RTVSPost2010PropOp57
 70
     1
  0
XRECORD
  5
14A
102
{ACAD_REACTORS
330
149
102
}
330
149
100
AcDbXrecord
280
     1
102
RTVSPropertyOp0
 70
     1
102
RTVSPropertyOp1
 70
     1
102
RTVSPropertyOp2
 70
     1
102
RTVSPropertyOp3
 70
     1
102
RTVSPropertyOp4
 70
     1
102
RTVSPropertyOp5
 70
     1
102
RTVSPropertyOp6
 70
     1
102
RTVSPropertyOp7
 70
     1
102
RTVSPropertyOp8
 70
     1
102
RTVSPropertyOp9
 70
     1
102
RTVSPropertyOp10
 70
     1
102
RTVSPropertyOp11
 70
     1
102
RTVSPropertyOp12
 70
     1
102
RTVSPropertyOp13
 70
     1
102
RTVSPropertyOp14
 70
     1
102
RTVSPropertyOp15
 70
     1
102
RTVSPropertyOp16
 70
     1
102
RTVSPropertyOp17
 70
     1
102
RTVSPropertyOp18
 70
     1
102
RTVSPropertyOp19
 70
     1
102
RTVSPropertyOp20
 70
     1
102
RTVSPropertyOp21
 70
     1
102
RTVSPropertyOp22
 70
     1
102
RTVSPropertyOp23
 70
     1
102
RTVSPropertyOp24
 70
     1
102
RTVSPropertyOp25
 70
     1
102
RTVSPropertyOp26
 70
     1
102
RTVSPropertyOp27
 70
     1
102
RTVSPropertyOp28
 70
     1
102
RTVSPropertyOp29
 70
     1
102
RTVSPropertyOp30
 70
     1
102
RTVSPropertyOp31
 70
     1
102
RTVSPropertyOp32
 70
     1
102
RTVSPropertyOp33
 70
     1
102
RTVSPropertyOp34
 70
     1
102
RTVSPropertyOp35
 70
     1
102
RTVSPropertyOp36
 70
     1
102
RTVSPropertyOp37
 70
     1
102
RTVSPropertyOp38
 70
     1
102
RTVSPropertyOp39
 70
     1
102
RTVSPropertyOp40
 70
     1
102
RTVSPropertyOp41
 70
     1
102
RTVSPropertyOp42
 70
     1
102
RTVSPropertyOp43
 70
     1
102
RTVSPropertyOp44
 70
     1
102
RTVSPropertyOp45
 70
     1
102
RTVSPropertyOp46
 70
     1
102
RTVSPropertyOp47
 70
     1
102
RTVSPropertyOp48
 70
     1
102
RTVSPropertyOp49
 70
     1
102
RTVSPropertyOp50
 70
     1
102
RTVSPropertyOp51
 70
     0
102
RTVSPropertyOp52
 70
     0
102
RTVSPropertyOp53
 70
     1
102
RTVSPropertyOp54
 70
     1
102
RTVSPropertyOp55
 70
     1
102
RTVSPropertyOp56
 70
     1
102
RTVSPropertyOp57
 70
     1
102
RTVSPost2010Prop28
280
     0
102
RTVSPost2010PropOp28
 70
     1
102
RTVSPost2010Prop29
280
     1
102
RTVSPost2010PropOp29
 70
     1
102
RTVSPost2010Prop30
280
     1
102
RTVSPost2010PropOp30
 70
     1
102
RTVSPost2010Prop31
280
     0
102
RTVSPost2010PropOp31
 70
     1
102
RTVSPost2010Prop32
280
     0
102
RTVSPost2010PropOp32
 70
     1
102
RTVSPost2010Prop33
280
     0
102
RTVSPost2010PropOp33
 70
     1
102
RTVSPost2010Prop34
280
     0
102
RTVSPost2010PropOp34
 70
     1
102
RTVSPost2010Prop35
280
     0
102
RTVSPost2010PropOp35
 70
     1
102
RTVSPost2010Prop36
280
     0
102
RTVSPost2010PropOp36
 70
     1
102
RTVSPost2010Prop37
 90
       50
102
RTVSPost2010PropOp37
 70
     1
102
RTVSPost2010Prop38
140
0.0
102
RTVSPost2010PropOp38
 70
     1
102
RTVSPost2010Prop39
140
1.0
102
RTVSPost2010PropOp39
 70
     1
102
RTVSPost2010Prop40
 90
        0
102
RTVSPost2010PropOp40
 70
     1
102
RTVSPost2010Prop41ColorIndex
 90
       18
102
RTVSPost2010Prop41ColorRGB
 90
        0
102
RTVSPost2010PropOp41
 70
     1
102
RTVSPost2010Prop42
 90
       50
102
RTVSPost2010PropOp42
 70
     1
102
RTVSPost2010Prop43
 90
        3
102
RTVSPost2010PropOp43
 70
     1
102
RTVSPost2010Prop44ColorIndex
 90
        5
102
RTVSPost2010Prop44ColorRGB
 90
      255
102
RTVSPost2010PropOp44
 70
     1
102
RTVSPost2010Prop45
280
     0
102
RTVSPost2010PropOp45
 70
     1
102
RTVSPost2010Prop46
 90
       50
102
RTVSPost2010PropOp46
 70
     1
102
RTVSPost2010Prop47
 90
       50
102
RTVSPost2010PropOp47
 70
     1
102
RTVSPost2010Prop48
 90
       50
102
RTVSPost2010PropOp48
 70
     1
102
RTVSPost2010Prop49
280
     0
102
RTVSPost2010PropOp49
 70
     1
102
RTVSPost2010Prop50
 90
       50
102
RTVSPost2010PropOp50
 70
     1
102
RTVSPost2010Prop51ColorIndex
 90
      256
102
RTVSPost2010Prop51ColorRGB
 90
-16777216
102
RTVSPost2010PropOp51
 70
     0
102
RTVSPost2010Prop52
140
1.0
102
RTVSPost2010PropOp52
 70
     0
102
RTVSPost2010Prop53
 90
        2
102
RTVSPost2010PropOp53
 70
     1
102
RTVSPost2010Prop54
  1
strokes_ogs.tif
102
RTVSPost2010PropOp54
 70
     1
102
RTVSPost2010Prop55
280
     0
102
RTVSPost2010PropOp55
 70
     1
102
RTVSPost2010Prop56
140
1.0
102
RTVSPost2010PropOp56
 70
     1
102
RTVSPost2010Prop57
140
1.0
102
RTVSPost2010PropOp57
 70
     1
  0
XRECORD
  5
152
102
{ACAD_REACTORS
330
151
102
}
330
151
100
AcDbXrecord
280
     1
102
RTVSPropertyOp0
 70
     1
102
RTVSPropertyOp1
 70
     1
102
RTVSPropertyOp2
 70
     1
102
RTVSPropertyOp3
 70
     1
102
RTVSPropertyOp4
 70
     1
102
RTVSPropertyOp5
 70
     1
102
RTVSPropertyOp6
 70
     1
102
RTVSPropertyOp7
 70
     1
102
RTVSPropertyOp8
 70
     1
102
RTVSPropertyOp9
 70
     1
102
RTVSPropertyOp10
 70
     1
102
RTVSPropertyOp11
 70
     1
102
RTVSPropertyOp12
 70
     1
102
RTVSPropertyOp13
 70
     1
102
RTVSPropertyOp14
 70
     1
102
RTVSPropertyOp15
 70
     1
102
RTVSPropertyOp16
 70
     1
102
RTVSPropertyOp17
 70
     1
102
RTVSPropertyOp18
 70
     1
102
RTVSPropertyOp19
 70
     1
102
RTVSPropertyOp20
 70
     1
102
RTVSPropertyOp21
 70
     1
102
RTVSPropertyOp22
 70
     1
102
RTVSPropertyOp23
 70
     1
102
RTVSPropertyOp24
 70
     1
102
RTVSPropertyOp25
 70
     1
102
RTVSPropertyOp26
 70
     1
102
RTVSPropertyOp27
 70
     1
102
RTVSPropertyOp28
 70
     1
102
RTVSPropertyOp29
 70
     1
102
RTVSPropertyOp30
 70
     1
102
RTVSPropertyOp31
 70
     1
102
RTVSPropertyOp32
 70
     1
102
RTVSPropertyOp33
 70
     1
102
RTVSPropertyOp34
 70
     1
102
RTVSPropertyOp35
 70
     1
102
RTVSPropertyOp36
 70
     1
102
RTVSPropertyOp37
 70
     1
102
RTVSPropertyOp38
 70
     1
102
RTVSPropertyOp39
 70
     1
102
RTVSPropertyOp40
 70
     1
102
RTVSPropertyOp41
 70
     1
102
RTVSPropertyOp42
 70
     1
102
RTVSPropertyOp43
 70
     1
102
RTVSPropertyOp44
 70
     1
102
RTVSPropertyOp45
 70
     1
102
RTVSPropertyOp46
 70
     1
102
RTVSPropertyOp47
 70
     1
102
RTVSPropertyOp48
 70
     1
102
RTVSPropertyOp49
 70
     1
102
RTVSPropertyOp50
 70
     1
102
RTVSPropertyOp51
 70
     0
102
RTVSPropertyOp52
 70
     0
102
RTVSPropertyOp53
 70
     1
102
RTVSPropertyOp54
 70
     1
102
RTVSPropertyOp55
 70
     1
102
RTVSPropertyOp56
 70
     1
102
RTVSPropertyOp57
 70
     1
102
RTVSPost2010Prop28
280
     0
102
RTVSPost2010PropOp28
 70
     1
102
RTVSPost2010Prop29
280
     1
102
RTVSPost2010PropOp29
 70
     1
102
RTVSPost2010Prop30
280
     1
102
RTVSPost2010PropOp30
 70
     1
102
RTVSPost2010Prop31
280
     0
102
RTVSPost2010PropOp31
 70
     1
102
RTVSPost2010Prop32
280
     0
102
RTVSPost2010PropOp32
 70
     1
102
RTVSPost2010Prop33
280
     0
102
RTVSPost2010PropOp33
 70
     1
102
RTVSPost2010Prop34
280
     0
102
RTVSPost2010PropOp34
 70
     1
102
RTVSPost2010Prop35
280
     0
102
RTVSPost2010PropOp35
 70
     1
102
RTVSPost2010Prop36
280
     0
102
RTVSPost2010PropOp36
 70
     1
102
RTVSPost2010Prop37
 90
       50
102
RTVSPost2010PropOp37
 70
     1
102
RTVSPost2010Prop38
140
0.0
102
RTVSPost2010PropOp38
 70
     1
102
RTVSPost2010Prop39
140
1.0
102
RTVSPost2010PropOp39
 70
     1
102
RTVSPost2010Prop40
 90
        0
102
RTVSPost2010PropOp40
 70
     1
102
RTVSPost2010Prop41ColorIndex
 90
       18
102
RTVSPost2010Prop41ColorRGB
 90
        0
102
RTVSPost2010PropOp41
 70
     1
102
RTVSPost2010Prop42
 90
       50
102
RTVSPost2010PropOp42
 70
     1
102
RTVSPost2010Prop43
 90
        3
102
RTVSPost2010PropOp43
 70
     1
102
RTVSPost2010Prop44ColorIndex
 90
        5
102
RTVSPost2010Prop44ColorRGB
 90
      255
102
RTVSPost2010PropOp44
 70
     1
102
RTVSPost2010Prop45
280
     0
102
RTVSPost2010PropOp45
 70
     1
102
RTVSPost2010Prop46
 90
       50
102
RTVSPost2010PropOp46
 70
     1
102
RTVSPost2010Prop47
 90
       50
102
RTVSPost2010PropOp47
 70
     1
102
RTVSPost2010Prop48
 90
       50
102
RTVSPost2010PropOp48
 70
     1
102
RTVSPost2010Prop49
280
     0
102
RTVSPost2010PropOp49
 70
     1
102
RTVSPost2010Prop50
 90
       50
102
RTVSPost2010PropOp50
 70
     1
102
RTVSPost2010Prop51ColorIndex
 90
      256
102
RTVSPost2010Prop51ColorRGB
 90
-16777216
102
RTVSPost2010PropOp51
 70
     0
102
RTVSPost2010Prop52
140
1.0
102
RTVSPost2010PropOp52
 70
     0
102
RTVSPost2010Prop53
 90
        2
102
RTVSPost2010PropOp53
 70
     1
102
RTVSPost2010Prop54
  1
strokes_ogs.tif
102
RTVSPost2010PropOp54
 70
     1
102
RTVSPost2010Prop55
280
     0
102
RTVSPost2010PropOp55
 70
     1
102
RTVSPost2010Prop56
140
1.0
102
RTVSPost2010PropOp56
 70
     1
102
RTVSPost2010Prop57
140
1.0
102
RTVSPost2010PropOp57
 70
     1
  0
XRECORD
  5
146
102
{ACAD_REACTORS
330
145
102
}
330
145
100
AcDbXrecord
280
     1
102
RTVSPropertyOp0
 70
     1
102
RTVSPropertyOp1
 70
     1
102
RTVSPropertyOp2
 70
     1
102
RTVSPropertyOp3
 70
     1
102
RTVSPropertyOp4
 70
     1
102
RTVSPropertyOp5
 70
     1
102
RTVSPropertyOp6
 70
     1
102
RTVSPropertyOp7
 70
     1
102
RTVSPropertyOp8
 70
     1
102
RTVSPropertyOp9
 70
     1
102
RTVSPropertyOp10
 70
     1
102
RTVSPropertyOp11
 70
     1
102
RTVSPropertyOp12
 70
     1
102
RTVSPropertyOp13
 70
     1
102
RTVSPropertyOp14
 70
     1
102
RTVSPropertyOp15
 70
     1
102
RTVSPropertyOp16
 70
     1
102
RTVSPropertyOp17
 70
     1
102
RTVSPropertyOp18
 70
     1
102
RTVSPropertyOp19
 70
     1
102
RTVSPropertyOp20
 70
     1
102
RTVSPropertyOp21
 70
     1
102
RTVSPropertyOp22
 70
     1
102
RTVSPropertyOp23
 70
     1
102
RTVSPropertyOp24
 70
     1
102
RTVSPropertyOp25
 70
     1
102
RTVSPropertyOp26
 70
     1
102
RTVSPropertyOp27
 70
     1
102
RTVSPropertyOp28
 70
     1
102
RTVSPropertyOp29
 70
     1
102
RTVSPropertyOp30
 70
     1
102
RTVSPropertyOp31
 70
     1
102
RTVSPropertyOp32
 70
     1
102
RTVSPropertyOp33
 70
     1
102
RTVSPropertyOp34
 70
     1
102
RTVSPropertyOp35
 70
     1
102
RTVSPropertyOp36
 70
     1
102
RTVSPropertyOp37
 70
     1
102
RTVSPropertyOp38
 70
     1
102
RTVSPropertyOp39
 70
     1
102
RTVSPropertyOp40
 70
     1
102
RTVSPropertyOp41
 70
     1
102
RTVSPropertyOp42
 70
     1
102
RTVSPropertyOp43
 70
     1
102
RTVSPropertyOp44
 70
     1
102
RTVSPropertyOp45
 70
     1
102
RTVSPropertyOp46
 70
     1
102
RTVSPropertyOp47
 70
     1
102
RTVSPropertyOp48
 70
     1
102
RTVSPropertyOp49
 70
     1
102
RTVSPropertyOp50
 70
     1
102
RTVSPropertyOp51
 70
     0
102
RTVSPropertyOp52
 70
     0
102
RTVSPropertyOp53
 70
     1
102
RTVSPropertyOp54
 70
     1
102
RTVSPropertyOp55
 70
     1
102
RTVSPropertyOp56
 70
     1
102
RTVSPropertyOp57
 70
     1
102
RTVSPost2010Prop28
280
     0
102
RTVSPost2010PropOp28
 70
     1
102
RTVSPost2010Prop29
280
     1
102
RTVSPost2010PropOp29
 70
     1
102
RTVSPost2010Prop30
280
     1
102
RTVSPost2010PropOp30
 70
     1
102
RTVSPost2010Prop31
280
     0
102
RTVSPost2010PropOp31
 70
     1
102
RTVSPost2010Prop32
280
     0
102
RTVSPost2010PropOp32
 70
     1
102
RTVSPost2010Prop33
280
     0
102
RTVSPost2010PropOp33
 70
     1
102
RTVSPost2010Prop34
280
     0
102
RTVSPost2010PropOp34
 70
     1
102
RTVSPost2010Prop35
280
     0
102
RTVSPost2010PropOp35
 70
     1
102
RTVSPost2010Prop36
280
     0
102
RTVSPost2010PropOp36
 70
     1
102
RTVSPost2010Prop37
 90
       50
102
RTVSPost2010PropOp37
 70
     1
102
RTVSPost2010Prop38
140
0.0
102
RTVSPost2010PropOp38
 70
     1
102
RTVSPost2010Prop39
140
1.0
102
RTVSPost2010PropOp39
 70
     1
102
RTVSPost2010Prop40
 90
        0
102
RTVSPost2010PropOp40
 70
     1
102
RTVSPost2010Prop41ColorIndex
 90
       18
102
RTVSPost2010Prop41ColorRGB
 90
        0
102
RTVSPost2010PropOp41
 70
     1
102
RTVSPost2010Prop42
 90
       50
102
RTVSPost2010PropOp42
 70
     1
102
RTVSPost2010Prop43
 90
        3
102
RTVSPost2010PropOp43
 70
     1
102
RTVSPost2010Prop44ColorIndex
 90
        5
102
RTVSPost2010Prop44ColorRGB
 90
      255
102
RTVSPost2010PropOp44
 70
     1
102
RTVSPost2010Prop45
280
     0
102
RTVSPost2010PropOp45
 70
     1
102
RTVSPost2010Prop46
 90
       50
102
RTVSPost2010PropOp46
 70
     1
102
RTVSPost2010Prop47
 90
       50
102
RTVSPost2010PropOp47
 70
     1
102
RTVSPost2010Prop48
 90
       50
102
RTVSPost2010PropOp48
 70
     1
102
RTVSPost2010Prop49
280
     0
102
RTVSPost2010PropOp49
 70
     1
102
RTVSPost2010Prop50
 90
       50
102
RTVSPost2010PropOp50
 70
     1
102
RTVSPost2010Prop51ColorIndex
 90
      256
102
RTVSPost2010Prop51ColorRGB
 90
-16777216
102
RTVSPost2010PropOp51
 70
     0
102
RTVSPost2010Prop52
140
1.0
102
RTVSPost2010PropOp52
 70
     0
102
RTVSPost2010Prop53
 90
        2
102
RTVSPost2010PropOp53
 70
     1
102
RTVSPost2010Prop54
  1
strokes_ogs.tif
102
RTVSPost2010PropOp54
 70
     1
102
RTVSPost2010Prop55
280
     0
102
RTVSPost2010PropOp55
 70
     1
102
RTVSPost2010Prop56
140
1.0
102
RTVSPost2010PropOp56
 70
     1
102
RTVSPost2010Prop57
140
1.0
102
RTVSPost2010PropOp57
 70
     1
  0
XRECORD
  5
148
102
{ACAD_REACTORS
330
147
102
}
330
147
100
AcDbXrecord
280
     1
102
RTVSPropertyOp0
 70
     1
102
RTVSPropertyOp1
 70
     1
102
RTVSPropertyOp2
 70
     1
102
RTVSPropertyOp3
 70
     1
102
RTVSPropertyOp4
 70
     1
102
RTVSPropertyOp5
 70
     1
102
RTVSPropertyOp6
 70
     1
102
RTVSPropertyOp7
 70
     1
102
RTVSPropertyOp8
 70
     1
102
RTVSPropertyOp9
 70
     1
102
RTVSPropertyOp10
 70
     1
102
RTVSPropertyOp11
 70
     1
102
RTVSPropertyOp12
 70
     1
102
RTVSPropertyOp13
 70
     1
102
RTVSPropertyOp14
 70
     1
102
RTVSPropertyOp15
 70
     1
102
RTVSPropertyOp16
 70
     1
102
RTVSPropertyOp17
 70
     1
102
RTVSPropertyOp18
 70
     1
102
RTVSPropertyOp19
 70
     1
102
RTVSPropertyOp20
 70
     1
102
RTVSPropertyOp21
 70
     1
102
RTVSPropertyOp22
 70
     1
102
RTVSPropertyOp23
 70
     1
102
RTVSPropertyOp24
 70
     1
102
RTVSPropertyOp25
 70
     1
102
RTVSPropertyOp26
 70
     1
102
RTVSPropertyOp27
 70
     1
102
RTVSPropertyOp28
 70
     1
102
RTVSPropertyOp29
 70
     1
102
RTVSPropertyOp30
 70
     1
102
RTVSPropertyOp31
 70
     1
102
RTVSPropertyOp32
 70
     1
102
RTVSPropertyOp33
 70
     1
102
RTVSPropertyOp34
 70
     1
102
RTVSPropertyOp35
 70
     1
102
RTVSPropertyOp36
 70
     1
102
RTVSPropertyOp37
 70
     1
102
RTVSPropertyOp38
 70
     1
102
RTVSPropertyOp39
 70
     1
102
RTVSPropertyOp40
 70
     1
102
RTVSPropertyOp41
 70
     1
102
RTVSPropertyOp42
 70
     1
102
RTVSPropertyOp43
 70
     1
102
RTVSPropertyOp44
 70
     1
102
RTVSPropertyOp45
 70
     1
102
RTVSPropertyOp46
 70
     1
102
RTVSPropertyOp47
 70
     1
102
RTVSPropertyOp48
 70
     1
102
RTVSPropertyOp49
 70
     1
102
RTVSPropertyOp50
 70
     1
102
RTVSPropertyOp51
 70
     0
102
RTVSPropertyOp52
 70
     0
102
RTVSPropertyOp53
 70
     1
102
RTVSPropertyOp54
 70
     1
102
RTVSPropertyOp55
 70
     1
102
RTVSPropertyOp56
 70
     1
102
RTVSPropertyOp57
 70
     1
102
RTVSPost2010Prop28
280
     0
102
RTVSPost2010PropOp28
 70
     1
102
RTVSPost2010Prop29
280
     1
102
RTVSPost2010PropOp29
 70
     1
102
RTVSPost2010Prop30
280
     1
102
RTVSPost2010PropOp30
 70
     1
102
RTVSPost2010Prop31
280
     0
102
RTVSPost2010PropOp31
 70
     1
102
RTVSPost2010Prop32
280
     0
102
RTVSPost2010PropOp32
 70
     1
102
RTVSPost2010Prop33
280
     0
102
RTVSPost2010PropOp33
 70
     1
102
RTVSPost2010Prop34
280
     0
102
RTVSPost2010PropOp34
 70
     1
102
RTVSPost2010Prop35
280
     0
102
RTVSPost2010PropOp35
 70
     1
102
RTVSPost2010Prop36
280
     0
102
RTVSPost2010PropOp36
 70
     1
102
RTVSPost2010Prop37
 90
       50
102
RTVSPost2010PropOp37
 70
     1
102
RTVSPost2010Prop38
140
0.0
102
RTVSPost2010PropOp38
 70
     1
102
RTVSPost2010Prop39
140
1.0
102
RTVSPost2010PropOp39
 70
     1
102
RTVSPost2010Prop40
 90
        0
102
RTVSPost2010PropOp40
 70
     1
102
RTVSPost2010Prop41ColorIndex
 90
       18
102
RTVSPost2010Prop41ColorRGB
 90
        0
102
RTVSPost2010PropOp41
 70
     1
102
RTVSPost2010Prop42
 90
       50
102
RTVSPost2010PropOp42
 70
     1
102
RTVSPost2010Prop43
 90
        3
102
RTVSPost2010PropOp43
 70
     1
102
RTVSPost2010Prop44ColorIndex
 90
        5
102
RTVSPost2010Prop44ColorRGB
 90
      255
102
RTVSPost2010PropOp44
 70
     1
102
RTVSPost2010Prop45
280
     0
102
RTVSPost2010PropOp45
 70
     1
102
RTVSPost2010Prop46
 90
       50
102
RTVSPost2010PropOp46
 70
     1
102
RTVSPost2010Prop47
 90
       50
102
RTVSPost2010PropOp47
 70
     1
102
RTVSPost2010Prop48
 90
       50
102
RTVSPost2010PropOp48
 70
     1
102
RTVSPost2010Prop49
280
     0
102
RTVSPost2010PropOp49
 70
     1
102
RTVSPost2010Prop50
 90
       50
102
RTVSPost2010PropOp50
 70
     1
102
RTVSPost2010Prop51ColorIndex
 90
      256
102
RTVSPost2010Prop51ColorRGB
 90
-16777216
102
RTVSPost2010PropOp51
 70
     0
102
RTVSPost2010Prop52
140
1.0
102
RTVSPost2010PropOp52
 70
     0
102
RTVSPost2010Prop53
 90
        2
102
RTVSPost2010PropOp53
 70
     1
102
RTVSPost2010Prop54
  1
strokes_ogs.tif
102
RTVSPost2010PropOp54
 70
     1
102
RTVSPost2010Prop55
280
     0
102
RTVSPost2010PropOp55
 70
     1
102
RTVSPost2010Prop56
140
1.0
102
RTVSPost2010PropOp56
 70
     1
102
RTVSPost2010Prop57
140
1.0
102
RTVSPost2010PropOp57
 70
     1
  0
XRECORD
  5
158
102
{ACAD_REACTORS
330
157
102
}
330
157
100
AcDbXrecord
280
     1
102
RTVSPropertyOp0
 70
     0
102
RTVSPropertyOp1
 70
     0
102
RTVSPropertyOp2
 70
     0
102
RTVSPropertyOp3
 70
     0
102
RTVSPropertyOp4
 70
     0
102
RTVSPropertyOp5
 70
     0
102
RTVSPropertyOp6
 70
     0
102
RTVSPropertyOp7
 70
     0
102
RTVSPropertyOp8
 70
     0
102
RTVSPropertyOp9
 70
     0
102
RTVSPropertyOp10
 70
     0
102
RTVSPropertyOp11
 70
     0
102
RTVSPropertyOp12
 70
     0
102
RTVSPropertyOp13
 70
     0
102
RTVSPropertyOp14
 70
     2
102
RTVSPropertyOp15
 70
     0
102
RTVSPropertyOp16
 70
     0
102
RTVSPropertyOp17
 70
     0
102
RTVSPropertyOp18
 70
     0
102
RTVSPropertyOp19
 70
     0
102
RTVSPropertyOp20
 70
     0
102
RTVSPropertyOp21
 70
     0
102
RTVSPropertyOp22
 70
     0
102
RTVSPropertyOp23
 70
     0
102
RTVSPropertyOp24
 70
     0
102
RTVSPropertyOp25
 70
     0
102
RTVSPropertyOp26
 70
     0
102
RTVSPropertyOp27
 70
     0
102
RTVSPropertyOp28
 70
     0
102
RTVSPropertyOp29
 70
     0
102
RTVSPropertyOp30
 70
     0
102
RTVSPropertyOp31
 70
     0
102
RTVSPropertyOp32
 70
     0
102
RTVSPropertyOp33
 70
     0
102
RTVSPropertyOp34
 70
     0
102
RTVSPropertyOp35
 70
     0
102
RTVSPropertyOp36
 70
     0
102
RTVSPropertyOp37
 70
     0
102
RTVSPropertyOp38
 70
     0
102
RTVSPropertyOp39
 70
     0
102
RTVSPropertyOp40
 70
     0
102
RTVSPropertyOp41
 70
     0
102
RTVSPropertyOp42
 70
     0
102
RTVSPropertyOp43
 70
     0
102
RTVSPropertyOp44
 70
     0
102
RTVSPropertyOp45
 70
     0
102
RTVSPropertyOp46
 70
     0
102
RTVSPropertyOp47
 70
     0
102
RTVSPropertyOp48
 70
     0
102
RTVSPropertyOp49
 70
     0
102
RTVSPropertyOp50
 70
     0
102
RTVSPropertyOp51
 70
     0
102
RTVSPropertyOp52
 70
     0
102
RTVSPropertyOp53
 70
     0
102
RTVSPropertyOp54
 70
     0
102
RTVSPropertyOp55
 70
     0
102
RTVSPropertyOp56
 70
     0
102
RTVSPropertyOp57
 70
     0
102
RTVSPost2010Prop28
280
     0
102
RTVSPost2010PropOp28
 70
     0
102
RTVSPost2010Prop29
280
     1
102
RTVSPost2010PropOp29
 70
     0
102
RTVSPost2010Prop30
280
     1
102
RTVSPost2010PropOp30
 70
     0
102
RTVSPost2010Prop31
280
     0
102
RTVSPost2010PropOp31
 70
     0
102
RTVSPost2010Prop32
280
     0
102
RTVSPost2010PropOp32
 70
     0
102
RTVSPost2010Prop33
280
     0
102
RTVSPost2010PropOp33
 70
     0
102
RTVSPost2010Prop34
280
     0
102
RTVSPost2010PropOp34
 70
     0
102
RTVSPost2010Prop35
280
     0
102
RTVSPost2010PropOp35
 70
     0
102
RTVSPost2010Prop36
280
     0
102
RTVSPost2010PropOp36
 70
     0
102
RTVSPost2010Prop37
 90
       50
102
RTVSPost2010PropOp37
 70
     0
102
RTVSPost2010Prop38
140
0.0
102
RTVSPost2010PropOp38
 70
     0
102
RTVSPost2010Prop39
140
1.0
102
RTVSPost2010PropOp39
 70
     0
102
RTVSPost2010Prop40
 90
        0
102
RTVSPost2010PropOp40
 70
     0
102
RTVSPost2010Prop41ColorIndex
 90
       18
102
RTVSPost2010Prop41ColorRGB
 90
        0
102
RTVSPost2010PropOp41
 70
     0
102
RTVSPost2010Prop42
 90
       50
102
RTVSPost2010PropOp42
 70
     0
102
RTVSPost2010Prop43
 90
        3
102
RTVSPost2010PropOp43
 70
     0
102
RTVSPost2010Prop44ColorIndex
 90
        5
102
RTVSPost2010Prop44ColorRGB
 90
      255
102
RTVSPost2010PropOp44
 70
     0
102
RTVSPost2010Prop45
280
     0
102
RTVSPost2010PropOp45
 70
     0
102
RTVSPost2010Prop46
 90
       50
102
RTVSPost2010PropOp46
 70
     0
102
RTVSPost2010Prop47
 90
       50
102
RTVSPost2010PropOp47
 70
     0
102
RTVSPost2010Prop48
 90
       50
102
RTVSPost2010PropOp48
 70
     0
102
RTVSPost2010Prop49
280
     0
102
RTVSPost2010PropOp49
 70
     0
102
RTVSPost2010Prop50
 90
       50
102
RTVSPost2010PropOp50
 70
     0
102
RTVSPost2010Prop51ColorIndex
 90
      256
102
RTVSPost2010Prop51ColorRGB
 90
-16777216
102
RTVSPost2010PropOp51
 70
     0
102
RTVSPost2010Prop52
140
1.0
102
RTVSPost2010PropOp52
 70
     0
102
RTVSPost2010Prop53
 90
        2
102
RTVSPost2010PropOp53
 70
     0
102
RTVSPost2010Prop54
  1
strokes_ogs.tif
102
RTVSPost2010PropOp54
 70
     0
102
RTVSPost2010Prop55
280
     0
102
RTVSPost2010PropOp55
 70
     0
102
RTVSPost2010Prop56
140
1.0
102
RTVSPost2010PropOp56
 70
     0
102
RTVSPost2010Prop57
140
1.0
102
RTVSPost2010PropOp57
 70
     0
  0
XRECORD
  5
150
102
{ACAD_REACTORS
330
14F
102
}
330
14F
100
AcDbXrecord
280
     1
102
RTVSPropertyOp0
 70
     1
102
RTVSPropertyOp1
 70
     1
102
RTVSPropertyOp2
 70
     1
102
RTVSPropertyOp3
 70
     1
102
RTVSPropertyOp4
 70
     1
102
RTVSPropertyOp5
 70
     1
102
RTVSPropertyOp6
 70
     1
102
RTVSPropertyOp7
 70
     1
102
RTVSPropertyOp8
 70
     1
102
RTVSPropertyOp9
 70
     1
102
RTVSPropertyOp10
 70
     1
102
RTVSPropertyOp11
 70
     1
102
RTVSPropertyOp12
 70
     1
102
RTVSPropertyOp13
 70
     1
102
RTVSPropertyOp14
 70
     1
102
RTVSPropertyOp15
 70
     1
102
RTVSPropertyOp16
 70
     1
102
RTVSPropertyOp17
 70
     1
102
RTVSPropertyOp18
 70
     1
102
RTVSPropertyOp19
 70
     1
102
RTVSPropertyOp20
 70
     1
102
RTVSPropertyOp21
 70
     1
102
RTVSPropertyOp22
 70
     1
102
RTVSPropertyOp23
 70
     1
102
RTVSPropertyOp24
 70
     1
102
RTVSPropertyOp25
 70
     1
102
RTVSPropertyOp26
 70
     1
102
RTVSPropertyOp27
 70
     1
102
RTVSPropertyOp28
 70
     1
102
RTVSPropertyOp29
 70
     1
102
RTVSPropertyOp30
 70
     1
102
RTVSPropertyOp31
 70
     1
102
RTVSPropertyOp32
 70
     1
102
RTVSPropertyOp33
 70
     1
102
RTVSPropertyOp34
 70
     1
102
RTVSPropertyOp35
 70
     1
102
RTVSPropertyOp36
 70
     1
102
RTVSPropertyOp37
 70
     1
102
RTVSPropertyOp38
 70
     1
102
RTVSPropertyOp39
 70
     1
102
RTVSPropertyOp40
 70
     1
102
RTVSPropertyOp41
 70
     1
102
RTVSPropertyOp42
 70
     1
102
RTVSPropertyOp43
 70
     1
102
RTVSPropertyOp44
 70
     1
102
RTVSPropertyOp45
 70
     1
102
RTVSPropertyOp46
 70
     1
102
RTVSPropertyOp47
 70
     1
102
RTVSPropertyOp48
 70
     1
102
RTVSPropertyOp49
 70
     1
102
RTVSPropertyOp50
 70
     1
102
RTVSPropertyOp51
 70
     0
102
RTVSPropertyOp52
 70
     0
102
RTVSPropertyOp53
 70
     1
102
RTVSPropertyOp54
 70
     1
102
RTVSPropertyOp55
 70
     1
102
RTVSPropertyOp56
 70
     1
102
RTVSPropertyOp57
 70
     1
102
RTVSPost2010Prop28
280
     0
102
RTVSPost2010PropOp28
 70
     1
102
RTVSPost2010Prop29
280
     1
102
RTVSPost2010PropOp29
 70
     1
102
RTVSPost2010Prop30
280
     1
102
RTVSPost2010PropOp30
 70
     1
102
RTVSPost2010Prop31
280
     0
102
RTVSPost2010PropOp31
 70
     1
102
RTVSPost2010Prop32
280
     0
102
RTVSPost2010PropOp32
 70
     1
102
RTVSPost2010Prop33
280
     0
102
RTVSPost2010PropOp33
 70
     1
102
RTVSPost2010Prop34
280
     0
102
RTVSPost2010PropOp34
 70
     1
102
RTVSPost2010Prop35
280
     0
102
RTVSPost2010PropOp35
 70
     1
102
RTVSPost2010Prop36
280
     0
102
RTVSPost2010PropOp36
 70
     1
102
RTVSPost2010Prop37
 90
       50
102
RTVSPost2010PropOp37
 70
     1
102
RTVSPost2010Prop38
140
0.0
102
RTVSPost2010PropOp38
 70
     1
102
RTVSPost2010Prop39
140
1.0
102
RTVSPost2010PropOp39
 70
     1
102
RTVSPost2010Prop40
 90
        0
102
RTVSPost2010PropOp40
 70
     1
102
RTVSPost2010Prop41ColorIndex
 90
       18
102
RTVSPost2010Prop41ColorRGB
 90
        0
102
RTVSPost2010PropOp41
 70
     1
102
RTVSPost2010Prop42
 90
       50
102
RTVSPost2010PropOp42
 70
     1
102
RTVSPost2010Prop43
 90
        3
102
RTVSPost2010PropOp43
 70
     1
102
RTVSPost2010Prop44ColorIndex
 90
        5
102
RTVSPost2010Prop44ColorRGB
 90
      255
102
RTVSPost2010PropOp44
 70
     1
102
RTVSPost2010Prop45
280
     0
102
RTVSPost2010PropOp45
 70
     1
102
RTVSPost2010Prop46
 90
       50
102
RTVSPost2010PropOp46
 70
     1
102
RTVSPost2010Prop47
 90
       50
102
RTVSPost2010PropOp47
 70
     1
102
RTVSPost2010Prop48
 90
       50
102
RTVSPost2010PropOp48
 70
     1
102
RTVSPost2010Prop49
280
     0
102
RTVSPost2010PropOp49
 70
     1
102
RTVSPost2010Prop50
 90
       50
102
RTVSPost2010PropOp50
 70
     1
102
RTVSPost2010Prop51ColorIndex
 90
      256
102
RTVSPost2010Prop51ColorRGB
 90
-16777216
102
RTVSPost2010PropOp51
 70
     0
102
RTVSPost2010Prop52
140
1.0
102
RTVSPost2010PropOp52
 70
     0
102
RTVSPost2010Prop53
 90
        2
102
RTVSPost2010PropOp53
 70
     1
102
RTVSPost2010Prop54
  1
strokes_ogs.tif
102
RTVSPost2010PropOp54
 70
     1
102
RTVSPost2010Prop55
280
     0
102
RTVSPost2010PropOp55
 70
     1
102
RTVSPost2010Prop56
140
1.0
102
RTVSPost2010PropOp56
 70
     1
102
RTVSPost2010Prop57
140
1.0
102
RTVSPost2010PropOp57
 70
     1
  0
XRECORD
  5
134
102
{ACAD_REACTORS
330
133
102
}
330
133
100
AcDbXrecord
280
     1
102
RTVSPropertyOp0
 70
     1
102
RTVSPropertyOp1
 70
     1
102
RTVSPropertyOp2
 70
     1
102
RTVSPropertyOp3
 70
     1
102
RTVSPropertyOp4
 70
     1
102
RTVSPropertyOp5
 70
     1
102
RTVSPropertyOp6
 70
     1
102
RTVSPropertyOp7
 70
     1
102
RTVSPropertyOp8
 70
     1
102
RTVSPropertyOp9
 70
     1
102
RTVSPropertyOp10
 70
     1
102
RTVSPropertyOp11
 70
     1
102
RTVSPropertyOp12
 70
     1
102
RTVSPropertyOp13
 70
     1
102
RTVSPropertyOp14
 70
     1
102
RTVSPropertyOp15
 70
     1
102
RTVSPropertyOp16
 70
     1
102
RTVSPropertyOp17
 70
     1
102
RTVSPropertyOp18
 70
     1
102
RTVSPropertyOp19
 70
     1
102
RTVSPropertyOp20
 70
     1
102
RTVSPropertyOp21
 70
     1
102
RTVSPropertyOp22
 70
     1
102
RTVSPropertyOp23
 70
     1
102
RTVSPropertyOp24
 70
     1
102
RTVSPropertyOp25
 70
     1
102
RTVSPropertyOp26
 70
     1
102
RTVSPropertyOp27
 70
     1
102
RTVSPropertyOp28
 70
     1
102
RTVSPropertyOp29
 70
     1
102
RTVSPropertyOp30
 70
     1
102
RTVSPropertyOp31
 70
     1
102
RTVSPropertyOp32
 70
     1
102
RTVSPropertyOp33
 70
     1
102
RTVSPropertyOp34
 70
     1
102
RTVSPropertyOp35
 70
     1
102
RTVSPropertyOp36
 70
     1
102
RTVSPropertyOp37
 70
     1
102
RTVSPropertyOp38
 70
     1
102
RTVSPropertyOp39
 70
     1
102
RTVSPropertyOp40
 70
     1
102
RTVSPropertyOp41
 70
     1
102
RTVSPropertyOp42
 70
     1
102
RTVSPropertyOp43
 70
     1
102
RTVSPropertyOp44
 70
     1
102
RTVSPropertyOp45
 70
     1
102
RTVSPropertyOp46
 70
     1
102
RTVSPropertyOp47
 70
     1
102
RTVSPropertyOp48
 70
     1
102
RTVSPropertyOp49
 70
     1
102
RTVSPropertyOp50
 70
     1
102
RTVSPropertyOp51
 70
     0
102
RTVSPropertyOp52
 70
     0
102
RTVSPropertyOp53
 70
     1
102
RTVSPropertyOp54
 70
     1
102
RTVSPropertyOp55
 70
     1
102
RTVSPropertyOp56
 70
     1
102
RTVSPropertyOp57
 70
     1
102
RTVSPost2010Prop28
280
     0
102
RTVSPost2010PropOp28
 70
     1
102
RTVSPost2010Prop29
280
     1
102
RTVSPost2010PropOp29
 70
     1
102
RTVSPost2010Prop30
280
     1
102
RTVSPost2010PropOp30
 70
     1
102
RTVSPost2010Prop31
280
     0
102
RTVSPost2010PropOp31
 70
     1
102
RTVSPost2010Prop32
280
     0
102
RTVSPost2010PropOp32
 70
     1
102
RTVSPost2010Prop33
280
     0
102
RTVSPost2010PropOp33
 70
     1
102
RTVSPost2010Prop34
280
     0
102
RTVSPost2010PropOp34
 70
     1
102
RTVSPost2010Prop35
280
     0
102
RTVSPost2010PropOp35
 70
     1
102
RTVSPost2010Prop36
280
     0
102
RTVSPost2010PropOp36
 70
     1
102
RTVSPost2010Prop37
 90
       50
102
RTVSPost2010PropOp37
 70
     1
102
RTVSPost2010Prop38
140
0.0
102
RTVSPost2010PropOp38
 70
     1
102
RTVSPost2010Prop39
140
1.0
102
RTVSPost2010PropOp39
 70
     1
102
RTVSPost2010Prop40
 90
        0
102
RTVSPost2010PropOp40
 70
     1
102
RTVSPost2010Prop41ColorIndex
 90
       18
102
RTVSPost2010Prop41ColorRGB
 90
        0
102
RTVSPost2010PropOp41
 70
     1
102
RTVSPost2010Prop42
 90
       50
102
RTVSPost2010PropOp42
 70
     1
102
RTVSPost2010Prop43
 90
        3
102
RTVSPost2010PropOp43
 70
     1
102
RTVSPost2010Prop44ColorIndex
 90
        5
102
RTVSPost2010Prop44ColorRGB
 90
      255
102
RTVSPost2010PropOp44
 70
     1
102
RTVSPost2010Prop45
280
     0
102
RTVSPost2010PropOp45
 70
     1
102
RTVSPost2010Prop46
 90
       50
102
RTVSPost2010PropOp46
 70
     1
102
RTVSPost2010Prop47
 90
       50
102
RTVSPost2010PropOp47
 70
     1
102
RTVSPost2010Prop48
 90
       50
102
RTVSPost2010PropOp48
 70
     1
102
RTVSPost2010Prop49
280
     0
102
RTVSPost2010PropOp49
 70
     1
102
RTVSPost2010Prop50
 90
       50
102
RTVSPost2010PropOp50
 70
     1
102
RTVSPost2010Prop51ColorIndex
 90
      256
102
RTVSPost2010Prop51ColorRGB
 90
-16777216
102
RTVSPost2010PropOp51
 70
     0
102
RTVSPost2010Prop52
140
1.0
102
RTVSPost2010PropOp52
 70
     0
102
RTVSPost2010Prop53
 90
        2
102
RTVSPost2010PropOp53
 70
     1
102
RTVSPost2010Prop54
  1
strokes_ogs.tif
102
RTVSPost2010PropOp54
 70
     1
102
RTVSPost2010Prop55
280
     0
102
RTVSPost2010PropOp55
 70
     1
102
RTVSPost2010Prop56
140
1.0
102
RTVSPost2010PropOp56
 70
     1
102
RTVSPost2010Prop57
140
1.0
102
RTVSPost2010PropOp57
 70
     1
  0
XRECORD
  5
136
102
{ACAD_REACTORS
330
135
102
}
330
135
100
AcDbXrecord
280
     1
102
RTVSPropertyOp0
 70
     1
102
RTVSPropertyOp1
 70
     1
102
RTVSPropertyOp2
 70
     1
102
RTVSPropertyOp3
 70
     1
102
RTVSPropertyOp4
 70
     1
102
RTVSPropertyOp5
 70
     1
102
RTVSPropertyOp6
 70
     1
102
RTVSPropertyOp7
 70
     1
102
RTVSPropertyOp8
 70
     1
102
RTVSPropertyOp9
 70
     1
102
RTVSPropertyOp10
 70
     1
102
RTVSPropertyOp11
 70
     1
102
RTVSPropertyOp12
 70
     1
102
RTVSPropertyOp13
 70
     1
102
RTVSPropertyOp14
 70
     1
102
RTVSPropertyOp15
 70
     1
102
RTVSPropertyOp16
 70
     1
102
RTVSPropertyOp17
 70
     1
102
RTVSPropertyOp18
 70
     1
102
RTVSPropertyOp19
 70
     1
102
RTVSPropertyOp20
 70
     1
102
RTVSPropertyOp21
 70
     1
102
RTVSPropertyOp22
 70
     1
102
RTVSPropertyOp23
 70
     1
102
RTVSPropertyOp24
 70
     1
102
RTVSPropertyOp25
 70
     1
102
RTVSPropertyOp26
 70
     1
102
RTVSPropertyOp27
 70
     1
102
RTVSPropertyOp28
 70
     1
102
RTVSPropertyOp29
 70
     1
102
RTVSPropertyOp30
 70
     1
102
RTVSPropertyOp31
 70
     1
102
RTVSPropertyOp32
 70
     1
102
RTVSPropertyOp33
 70
     1
102
RTVSPropertyOp34
 70
     1
102
RTVSPropertyOp35
 70
     1
102
RTVSPropertyOp36
 70
     1
102
RTVSPropertyOp37
 70
     1
102
RTVSPropertyOp38
 70
     1
102
RTVSPropertyOp39
 70
     1
102
RTVSPropertyOp40
 70
     1
102
RTVSPropertyOp41
 70
     1
102
RTVSPropertyOp42
 70
     1
102
RTVSPropertyOp43
 70
     1
102
RTVSPropertyOp44
 70
     1
102
RTVSPropertyOp45
 70
     1
102
RTVSPropertyOp46
 70
     1
102
RTVSPropertyOp47
 70
     1
102
RTVSPropertyOp48
 70
     1
102
RTVSPropertyOp49
 70
     1
102
RTVSPropertyOp50
 70
     1
102
RTVSPropertyOp51
 70
     0
102
RTVSPropertyOp52
 70
     0
102
RTVSPropertyOp53
 70
     1
102
RTVSPropertyOp54
 70
     1
102
RTVSPropertyOp55
 70
     1
102
RTVSPropertyOp56
 70
     1
102
RTVSPropertyOp57
 70
     1
102
RTVSPost2010Prop28
280
     0
102
RTVSPost2010PropOp28
 70
     1
102
RTVSPost2010Prop29
280
     1
102
RTVSPost2010PropOp29
 70
     1
102
RTVSPost2010Prop30
280
     1
102
RTVSPost2010PropOp30
 70
     1
102
RTVSPost2010Prop31
280
     0
102
RTVSPost2010PropOp31
 70
     1
102
RTVSPost2010Prop32
280
     0
102
RTVSPost2010PropOp32
 70
     1
102
RTVSPost2010Prop33
280
     0
102
RTVSPost2010PropOp33
 70
     1
102
RTVSPost2010Prop34
280
     0
102
RTVSPost2010PropOp34
 70
     1
102
RTVSPost2010Prop35
280
     0
102
RTVSPost2010PropOp35
 70
     1
102
RTVSPost2010Prop36
280
     0
102
RTVSPost2010PropOp36
 70
     1
102
RTVSPost2010Prop37
 90
       50
102
RTVSPost2010PropOp37
 70
     1
102
RTVSPost2010Prop38
140
0.0
102
RTVSPost2010PropOp38
 70
     1
102
RTVSPost2010Prop39
140
1.0
102
RTVSPost2010PropOp39
 70
     1
102
RTVSPost2010Prop40
 90
        0
102
RTVSPost2010PropOp40
 70
     1
102
RTVSPost2010Prop41ColorIndex
 90
       18
102
RTVSPost2010Prop41ColorRGB
 90
        0
102
RTVSPost2010PropOp41
 70
     1
102
RTVSPost2010Prop42
 90
       50
102
RTVSPost2010PropOp42
 70
     1
102
RTVSPost2010Prop43
 90
        3
102
RTVSPost2010PropOp43
 70
     1
102
RTVSPost2010Prop44ColorIndex
 90
        5
102
RTVSPost2010Prop44ColorRGB
 90
      255
102
RTVSPost2010PropOp44
 70
     1
102
RTVSPost2010Prop45
280
     0
102
RTVSPost2010PropOp45
 70
     1
102
RTVSPost2010Prop46
 90
       50
102
RTVSPost2010PropOp46
 70
     1
102
RTVSPost2010Prop47
 90
       50
102
RTVSPost2010PropOp47
 70
     1
102
RTVSPost2010Prop48
 90
       50
102
RTVSPost2010PropOp48
 70
     1
102
RTVSPost2010Prop49
280
     0
102
RTVSPost2010PropOp49
 70
     1
102
RTVSPost2010Prop50
 90
       50
102
RTVSPost2010PropOp50
 70
     1
102
RTVSPost2010Prop51ColorIndex
 90
      256
102
RTVSPost2010Prop51ColorRGB
 90
-16777216
102
RTVSPost2010PropOp51
 70
     0
102
RTVSPost2010Prop52
140
1.0
102
RTVSPost2010PropOp52
 70
     0
102
RTVSPost2010Prop53
 90
        2
102
RTVSPost2010PropOp53
 70
     1
102
RTVSPost2010Prop54
  1
strokes_ogs.tif
102
RTVSPost2010PropOp54
 70
     1
102
RTVSPost2010Prop55
280
     0
102
RTVSPost2010PropOp55
 70
     1
102
RTVSPost2010Prop56
140
1.0
102
RTVSPost2010PropOp56
 70
     1
102
RTVSPost2010Prop57
140
1.0
102
RTVSPost2010PropOp57
 70
     1
  0
XRECORD
  5
138
102
{ACAD_REACTORS
330
137
102
}
330
137
100
AcDbXrecord
280
     1
102
RTVSPropertyOp0
 70
     1
102
RTVSPropertyOp1
 70
     1
102
RTVSPropertyOp2
 70
     1
102
RTVSPropertyOp3
 70
     1
102
RTVSPropertyOp4
 70
     1
102
RTVSPropertyOp5
 70
     1
102
RTVSPropertyOp6
 70
     1
102
RTVSPropertyOp7
 70
     1
102
RTVSPropertyOp8
 70
     1
102
RTVSPropertyOp9
 70
     1
102
RTVSPropertyOp10
 70
     1
102
RTVSPropertyOp11
 70
     1
102
RTVSPropertyOp12
 70
     1
102
RTVSPropertyOp13
 70
     1
102
RTVSPropertyOp14
 70
     1
102
RTVSPropertyOp15
 70
     1
102
RTVSPropertyOp16
 70
     1
102
RTVSPropertyOp17
 70
     1
102
RTVSPropertyOp18
 70
     1
102
RTVSPropertyOp19
 70
     1
102
RTVSPropertyOp20
 70
     1
102
RTVSPropertyOp21
 70
     1
102
RTVSPropertyOp22
 70
     1
102
RTVSPropertyOp23
 70
     1
102
RTVSPropertyOp24
 70
     1
102
RTVSPropertyOp25
 70
     1
102
RTVSPropertyOp26
 70
     1
102
RTVSPropertyOp27
 70
     1
102
RTVSPropertyOp28
 70
     1
102
RTVSPropertyOp29
 70
     1
102
RTVSPropertyOp30
 70
     1
102
RTVSPropertyOp31
 70
     1
102
RTVSPropertyOp32
 70
     1
102
RTVSPropertyOp33
 70
     1
102
RTVSPropertyOp34
 70
     1
102
RTVSPropertyOp35
 70
     1
102
RTVSPropertyOp36
 70
     1
102
RTVSPropertyOp37
 70
     1
102
RTVSPropertyOp38
 70
     1
102
RTVSPropertyOp39
 70
     1
102
RTVSPropertyOp40
 70
     1
102
RTVSPropertyOp41
 70
     1
102
RTVSPropertyOp42
 70
     1
102
RTVSPropertyOp43
 70
     1
102
RTVSPropertyOp44
 70
     1
102
RTVSPropertyOp45
 70
     1
102
RTVSPropertyOp46
 70
     1
102
RTVSPropertyOp47
 70
     1
102
RTVSPropertyOp48
 70
     1
102
RTVSPropertyOp49
 70
     1
102
RTVSPropertyOp50
 70
     1
102
RTVSPropertyOp51
 70
     0
102
RTVSPropertyOp52
 70
     0
102
RTVSPropertyOp53
 70
     1
102
RTVSPropertyOp54
 70
     1
102
RTVSPropertyOp55
 70
     1
102
RTVSPropertyOp56
 70
     1
102
RTVSPropertyOp57
 70
     1
102
RTVSPost2010Prop28
280
     0
102
RTVSPost2010PropOp28
 70
     1
102
RTVSPost2010Prop29
280
     1
102
RTVSPost2010PropOp29
 70
     1
102
RTVSPost2010Prop30
280
     1
102
RTVSPost2010PropOp30
 70
     1
102
RTVSPost2010Prop31
280
     0
102
RTVSPost2010PropOp31
 70
     1
102
RTVSPost2010Prop32
280
     0
102
RTVSPost2010PropOp32
 70
     1
102
RTVSPost2010Prop33
280
     0
102
RTVSPost2010PropOp33
 70
     1
102
RTVSPost2010Prop34
280
     0
102
RTVSPost2010PropOp34
 70
     1
102
RTVSPost2010Prop35
280
     0
102
RTVSPost2010PropOp35
 70
     1
102
RTVSPost2010Prop36
280
     0
102
RTVSPost2010PropOp36
 70
     1
102
RTVSPost2010Prop37
 90
       50
102
RTVSPost2010PropOp37
 70
     1
102
RTVSPost2010Prop38
140
0.0
102
RTVSPost2010PropOp38
 70
     1
102
RTVSPost2010Prop39
140
1.0
102
RTVSPost2010PropOp39
 70
     1
102
RTVSPost2010Prop40
 90
        0
102
RTVSPost2010PropOp40
 70
     1
102
RTVSPost2010Prop41ColorIndex
 90
       18
102
RTVSPost2010Prop41ColorRGB
 90
        0
102
RTVSPost2010PropOp41
 70
     1
102
RTVSPost2010Prop42
 90
       50
102
RTVSPost2010PropOp42
 70
     1
102
RTVSPost2010Prop43
 90
        3
102
RTVSPost2010PropOp43
 70
     1
102
RTVSPost2010Prop44ColorIndex
 90
        5
102
RTVSPost2010Prop44ColorRGB
 90
      255
102
RTVSPost2010PropOp44
 70
     1
102
RTVSPost2010Prop45
280
     0
102
RTVSPost2010PropOp45
 70
     1
102
RTVSPost2010Prop46
 90
       50
102
RTVSPost2010PropOp46
 70
     1
102
RTVSPost2010Prop47
 90
       50
102
RTVSPost2010PropOp47
 70
     1
102
RTVSPost2010Prop48
 90
       50
102
RTVSPost2010PropOp48
 70
     1
102
RTVSPost2010Prop49
280
     0
102
RTVSPost2010PropOp49
 70
     1
102
RTVSPost2010Prop50
 90
       50
102
RTVSPost2010PropOp50
 70
     1
102
RTVSPost2010Prop51ColorIndex
 90
      256
102
RTVSPost2010Prop51ColorRGB
 90
-16777216
102
RTVSPost2010PropOp51
 70
     0
102
RTVSPost2010Prop52
140
1.0
102
RTVSPost2010PropOp52
 70
     0
102
RTVSPost2010Prop53
 90
        2
102
RTVSPost2010PropOp53
 70
     1
102
RTVSPost2010Prop54
  1
strokes_ogs.tif
102
RTVSPost2010PropOp54
 70
     1
102
RTVSPost2010Prop55
280
     0
102
RTVSPost2010PropOp55
 70
     1
102
RTVSPost2010Prop56
140
1.0
102
RTVSPost2010PropOp56
 70
     1
102
RTVSPost2010Prop57
140
1.0
102
RTVSPost2010PropOp57
 70
     1
  0
XRECORD
  5
13A
102
{ACAD_REACTORS
330
139
102
}
330
139
100
AcDbXrecord
280
     1
102
RTVSPropertyOp0
 70
     1
102
RTVSPropertyOp1
 70
     1
102
RTVSPropertyOp2
 70
     1
102
RTVSPropertyOp3
 70
     1
102
RTVSPropertyOp4
 70
     1
102
RTVSPropertyOp5
 70
     1
102
RTVSPropertyOp6
 70
     1
102
RTVSPropertyOp7
 70
     1
102
RTVSPropertyOp8
 70
     1
102
RTVSPropertyOp9
 70
     1
102
RTVSPropertyOp10
 70
     1
102
RTVSPropertyOp11
 70
     1
102
RTVSPropertyOp12
 70
     1
102
RTVSPropertyOp13
 70
     1
102
RTVSPropertyOp14
 70
     1
102
RTVSPropertyOp15
 70
     1
102
RTVSPropertyOp16
 70
     1
102
RTVSPropertyOp17
 70
     1
102
RTVSPropertyOp18
 70
     1
102
RTVSPropertyOp19
 70
     1
102
RTVSPropertyOp20
 70
     1
102
RTVSPropertyOp21
 70
     1
102
RTVSPropertyOp22
 70
     1
102
RTVSPropertyOp23
 70
     1
102
RTVSPropertyOp24
 70
     1
102
RTVSPropertyOp25
 70
     1
102
RTVSPropertyOp26
 70
     1
102
RTVSPropertyOp27
 70
     1
102
RTVSPropertyOp28
 70
     1
102
RTVSPropertyOp29
 70
     1
102
RTVSPropertyOp30
 70
     1
102
RTVSPropertyOp31
 70
     1
102
RTVSPropertyOp32
 70
     1
102
RTVSPropertyOp33
 70
     1
102
RTVSPropertyOp34
 70
     1
102
RTVSPropertyOp35
 70
     1
102
RTVSPropertyOp36
 70
     1
102
RTVSPropertyOp37
 70
     1
102
RTVSPropertyOp38
 70
     1
102
RTVSPropertyOp39
 70
     1
102
RTVSPropertyOp40
 70
     1
102
RTVSPropertyOp41
 70
     1
102
RTVSPropertyOp42
 70
     1
102
RTVSPropertyOp43
 70
     1
102
RTVSPropertyOp44
 70
     1
102
RTVSPropertyOp45
 70
     1
102
RTVSPropertyOp46
 70
     1
102
RTVSPropertyOp47
 70
     1
102
RTVSPropertyOp48
 70
     1
102
RTVSPropertyOp49
 70
     1
102
RTVSPropertyOp50
 70
     1
102
RTVSPropertyOp51
 70
     0
102
RTVSPropertyOp52
 70
     0
102
RTVSPropertyOp53
 70
     1
102
RTVSPropertyOp54
 70
     1
102
RTVSPropertyOp55
 70
     1
102
RTVSPropertyOp56
 70
     1
102
RTVSPropertyOp57
 70
     1
102
RTVSPost2010Prop28
280
     0
102
RTVSPost2010PropOp28
 70
     1
102
RTVSPost2010Prop29
280
     1
102
RTVSPost2010PropOp29
 70
     1
102
RTVSPost2010Prop30
280
     1
102
RTVSPost2010PropOp30
 70
     1
102
RTVSPost2010Prop31
280
     0
102
RTVSPost2010PropOp31
 70
     1
102
RTVSPost2010Prop32
280
     0
102
RTVSPost2010PropOp32
 70
     1
102
RTVSPost2010Prop33
280
     0
102
RTVSPost2010PropOp33
 70
     1
102
RTVSPost2010Prop34
280
     0
102
RTVSPost2010PropOp34
 70
     1
102
RTVSPost2010Prop35
280
     0
102
RTVSPost2010PropOp35
 70
     1
102
RTVSPost2010Prop36
280
     0
102
RTVSPost2010PropOp36
 70
     1
102
RTVSPost2010Prop37
 90
       50
102
RTVSPost2010PropOp37
 70
     1
102
RTVSPost2010Prop38
140
0.0
102
RTVSPost2010PropOp38
 70
     1
102
RTVSPost2010Prop39
140
1.0
102
RTVSPost2010PropOp39
 70
     1
102
RTVSPost2010Prop40
 90
        0
102
RTVSPost2010PropOp40
 70
     1
102
RTVSPost2010Prop41ColorIndex
 90
       18
102
RTVSPost2010Prop41ColorRGB
 90
        0
102
RTVSPost2010PropOp41
 70
     1
102
RTVSPost2010Prop42
 90
       50
102
RTVSPost2010PropOp42
 70
     1
102
RTVSPost2010Prop43
 90
        3
102
RTVSPost2010PropOp43
 70
     1
102
RTVSPost2010Prop44ColorIndex
 90
        5
102
RTVSPost2010Prop44ColorRGB
 90
      255
102
RTVSPost2010PropOp44
 70
     1
102
RTVSPost2010Prop45
280
     0
102
RTVSPost2010PropOp45
 70
     1
102
RTVSPost2010Prop46
 90
       50
102
RTVSPost2010PropOp46
 70
     1
102
RTVSPost2010Prop47
 90
       50
102
RTVSPost2010PropOp47
 70
     1
102
RTVSPost2010Prop48
 90
       50
102
RTVSPost2010PropOp48
 70
     1
102
RTVSPost2010Prop49
280
     0
102
RTVSPost2010PropOp49
 70
     1
102
RTVSPost2010Prop50
 90
       50
102
RTVSPost2010PropOp50
 70
     1
102
RTVSPost2010Prop51ColorIndex
 90
      256
102
RTVSPost2010Prop51ColorRGB
 90
-16777216
102
RTVSPost2010PropOp51
 70
     0
102
RTVSPost2010Prop52
140
1.0
102
RTVSPost2010PropOp52
 70
     0
102
RTVSPost2010Prop53
 90
        2
102
RTVSPost2010PropOp53
 70
     1
102
RTVSPost2010Prop54
  1
strokes_ogs.tif
102
RTVSPost2010PropOp54
 70
     1
102
RTVSPost2010Prop55
280
     0
102
RTVSPost2010PropOp55
 70
     1
102
RTVSPost2010Prop56
140
1.0
102
RTVSPost2010PropOp56
 70
     1
102
RTVSPost2010Prop57
140
1.0
102
RTVSPost2010PropOp57
 70
     1
  0
XRECORD
  5
140
102
{ACAD_REACTORS
330
13F
102
}
330
13F
100
AcDbXrecord
280
     1
102
RTVSPropertyOp0
 70
     1
102
RTVSPropertyOp1
 70
     1
102
RTVSPropertyOp2
 70
     1
102
RTVSPropertyOp3
 70
     1
102
RTVSPropertyOp4
 70
     1
102
RTVSPropertyOp5
 70
     1
102
RTVSPropertyOp6
 70
     1
102
RTVSPropertyOp7
 70
     1
102
RTVSPropertyOp8
 70
     1
102
RTVSPropertyOp9
 70
     1
102
RTVSPropertyOp10
 70
     1
102
RTVSPropertyOp11
 70
     1
102
RTVSPropertyOp12
 70
     1
102
RTVSPropertyOp13
 70
     1
102
RTVSPropertyOp14
 70
     1
102
RTVSPropertyOp15
 70
     1
102
RTVSPropertyOp16
 70
     1
102
RTVSPropertyOp17
 70
     1
102
RTVSPropertyOp18
 70
     1
102
RTVSPropertyOp19
 70
     1
102
RTVSPropertyOp20
 70
     1
102
RTVSPropertyOp21
 70
     1
102
RTVSPropertyOp22
 70
     1
102
RTVSPropertyOp23
 70
     1
102
RTVSPropertyOp24
 70
     1
102
RTVSPropertyOp25
 70
     1
102
RTVSPropertyOp26
 70
     1
102
RTVSPropertyOp27
 70
     1
102
RTVSPropertyOp28
 70
     1
102
RTVSPropertyOp29
 70
     1
102
RTVSPropertyOp30
 70
     1
102
RTVSPropertyOp31
 70
     1
102
RTVSPropertyOp32
 70
     1
102
RTVSPropertyOp33
 70
     1
102
RTVSPropertyOp34
 70
     1
102
RTVSPropertyOp35
 70
     1
102
RTVSPropertyOp36
 70
     1
102
RTVSPropertyOp37
 70
     1
102
RTVSPropertyOp38
 70
     1
102
RTVSPropertyOp39
 70
     1
102
RTVSPropertyOp40
 70
     1
102
RTVSPropertyOp41
 70
     1
102
RTVSPropertyOp42
 70
     1
102
RTVSPropertyOp43
 70
     1
102
RTVSPropertyOp44
 70
     1
102
RTVSPropertyOp45
 70
     1
102
RTVSPropertyOp46
 70
     1
102
RTVSPropertyOp47
 70
     1
102
RTVSPropertyOp48
 70
     1
102
RTVSPropertyOp49
 70
     1
102
RTVSPropertyOp50
 70
     1
102
RTVSPropertyOp51
 70
     0
102
RTVSPropertyOp52
 70
     0
102
RTVSPropertyOp53
 70
     1
102
RTVSPropertyOp54
 70
     1
102
RTVSPropertyOp55
 70
     1
102
RTVSPropertyOp56
 70
     1
102
RTVSPropertyOp57
 70
     1
102
RTVSPost2010Prop28
280
     0
102
RTVSPost2010PropOp28
 70
     1
102
RTVSPost2010Prop29
280
     1
102
RTVSPost2010PropOp29
 70
     1
102
RTVSPost2010Prop30
280
     1
102
RTVSPost2010PropOp30
 70
     1
102
RTVSPost2010Prop31
280
     0
102
RTVSPost2010PropOp31
 70
     1
102
RTVSPost2010Prop32
280
     0
102
RTVSPost2010PropOp32
 70
     1
102
RTVSPost2010Prop33
280
     0
102
RTVSPost2010PropOp33
 70
     1
102
RTVSPost2010Prop34
280
     0
102
RTVSPost2010PropOp34
 70
     1
102
RTVSPost2010Prop35
280
     0
102
RTVSPost2010PropOp35
 70
     1
102
RTVSPost2010Prop36
280
     0
102
RTVSPost2010PropOp36
 70
     1
102
RTVSPost2010Prop37
 90
       50
102
RTVSPost2010PropOp37
 70
     1
102
RTVSPost2010Prop38
140
0.0
102
RTVSPost2010PropOp38
 70
     1
102
RTVSPost2010Prop39
140
1.0
102
RTVSPost2010PropOp39
 70
     1
102
RTVSPost2010Prop40
 90
        0
102
RTVSPost2010PropOp40
 70
     1
102
RTVSPost2010Prop41ColorIndex
 90
       18
102
RTVSPost2010Prop41ColorRGB
 90
        0
102
RTVSPost2010PropOp41
 70
     1
102
RTVSPost2010Prop42
 90
       50
102
RTVSPost2010PropOp42
 70
     1
102
RTVSPost2010Prop43
 90
        3
102
RTVSPost2010PropOp43
 70
     1
102
RTVSPost2010Prop44ColorIndex
 90
        5
102
RTVSPost2010Prop44ColorRGB
 90
      255
102
RTVSPost2010PropOp44
 70
     1
102
RTVSPost2010Prop45
280
     0
102
RTVSPost2010PropOp45
 70
     1
102
RTVSPost2010Prop46
 90
       50
102
RTVSPost2010PropOp46
 70
     1
102
RTVSPost2010Prop47
 90
       50
102
RTVSPost2010PropOp47
 70
     1
102
RTVSPost2010Prop48
 90
       50
102
RTVSPost2010PropOp48
 70
     1
102
RTVSPost2010Prop49
280
     0
102
RTVSPost2010PropOp49
 70
     1
102
RTVSPost2010Prop50
 90
       50
102
RTVSPost2010PropOp50
 70
     1
102
RTVSPost2010Prop51ColorIndex
 90
      256
102
RTVSPost2010Prop51ColorRGB
 90
-16777216
102
RTVSPost2010PropOp51
 70
     0
102
RTVSPost2010Prop52
140
1.0
102
RTVSPost2010PropOp52
 70
     0
102
RTVSPost2010Prop53
 90
        2
102
RTVSPost2010PropOp53
 70
     1
102
RTVSPost2010Prop54
  1
strokes_ogs.tif
102
RTVSPost2010PropOp54
 70
     1
102
RTVSPost2010Prop55
280
     0
102
RTVSPost2010PropOp55
 70
     1
102
RTVSPost2010Prop56
140
1.0
102
RTVSPost2010PropOp56
 70
     1
102
RTVSPost2010Prop57
140
1.0
102
RTVSPost2010PropOp57
 70
     1
  0
XRECORD
  5
154
102
{ACAD_REACTORS
330
153
102
}
330
153
100
AcDbXrecord
280
     1
102
RTVSPropertyOp0
 70
     0
102
RTVSPropertyOp1
 70
     0
102
RTVSPropertyOp2
 70
     0
102
RTVSPropertyOp3
 70
     0
102
RTVSPropertyOp4
 70
     0
102
RTVSPropertyOp5
 70
     0
102
RTVSPropertyOp6
 70
     0
102
RTVSPropertyOp7
 70
     0
102
RTVSPropertyOp8
 70
     0
102
RTVSPropertyOp9
 70
     0
102
RTVSPropertyOp10
 70
     0
102
RTVSPropertyOp11
 70
     0
102
RTVSPropertyOp12
 70
     0
102
RTVSPropertyOp13
 70
     0
102
RTVSPropertyOp14
 70
     2
102
RTVSPropertyOp15
 70
     0
102
RTVSPropertyOp16
 70
     0
102
RTVSPropertyOp17
 70
     0
102
RTVSPropertyOp18
 70
     0
102
RTVSPropertyOp19
 70
     0
102
RTVSPropertyOp20
 70
     0
102
RTVSPropertyOp21
 70
     0
102
RTVSPropertyOp22
 70
     0
102
RTVSPropertyOp23
 70
     0
102
RTVSPropertyOp24
 70
     0
102
RTVSPropertyOp25
 70
     0
102
RTVSPropertyOp26
 70
     0
102
RTVSPropertyOp27
 70
     0
102
RTVSPropertyOp28
 70
     0
102
RTVSPropertyOp29
 70
     0
102
RTVSPropertyOp30
 70
     0
102
RTVSPropertyOp31
 70
     0
102
RTVSPropertyOp32
 70
     0
102
RTVSPropertyOp33
 70
     0
102
RTVSPropertyOp34
 70
     0
102
RTVSPropertyOp35
 70
     0
102
RTVSPropertyOp36
 70
     0
102
RTVSPropertyOp37
 70
     0
102
RTVSPropertyOp38
 70
     0
102
RTVSPropertyOp39
 70
     0
102
RTVSPropertyOp40
 70
     0
102
RTVSPropertyOp41
 70
     0
102
RTVSPropertyOp42
 70
     0
102
RTVSPropertyOp43
 70
     0
102
RTVSPropertyOp44
 70
     0
102
RTVSPropertyOp45
 70
     0
102
RTVSPropertyOp46
 70
     0
102
RTVSPropertyOp47
 70
     0
102
RTVSPropertyOp48
 70
     0
102
RTVSPropertyOp49
 70
     0
102
RTVSPropertyOp50
 70
     0
102
RTVSPropertyOp51
 70
     0
102
RTVSPropertyOp52
 70
     0
102
RTVSPropertyOp53
 70
     0
102
RTVSPropertyOp54
 70
     0
102
RTVSPropertyOp55
 70
     0
102
RTVSPropertyOp56
 70
     0
102
RTVSPropertyOp57
 70
     0
102
RTVSPost2010Prop28
280
     0
102
RTVSPost2010PropOp28
 70
     0
102
RTVSPost2010Prop29
280
     1
102
RTVSPost2010PropOp29
 70
     0
102
RTVSPost2010Prop30
280
     1
102
RTVSPost2010PropOp30
 70
     0
102
RTVSPost2010Prop31
280
     0
102
RTVSPost2010PropOp31
 70
     0
102
RTVSPost2010Prop32
280
     0
102
RTVSPost2010PropOp32
 70
     0
102
RTVSPost2010Prop33
280
     0
102
RTVSPost2010PropOp33
 70
     0
102
RTVSPost2010Prop34
280
     0
102
RTVSPost2010PropOp34
 70
     0
102
RTVSPost2010Prop35
280
     0
102
RTVSPost2010PropOp35
 70
     0
102
RTVSPost2010Prop36
280
     0
102
RTVSPost2010PropOp36
 70
     0
102
RTVSPost2010Prop37
 90
       50
102
RTVSPost2010PropOp37
 70
     0
102
RTVSPost2010Prop38
140
0.0
102
RTVSPost2010PropOp38
 70
     0
102
RTVSPost2010Prop39
140
1.0
102
RTVSPost2010PropOp39
 70
     0
102
RTVSPost2010Prop40
 90
        0
102
RTVSPost2010PropOp40
 70
     0
102
RTVSPost2010Prop41ColorIndex
 90
       18
102
RTVSPost2010Prop41ColorRGB
 90
        0
102
RTVSPost2010PropOp41
 70
     0
102
RTVSPost2010Prop42
 90
       50
102
RTVSPost2010PropOp42
 70
     0
102
RTVSPost2010Prop43
 90
        3
102
RTVSPost2010PropOp43
 70
     0
102
RTVSPost2010Prop44ColorIndex
 90
        5
102
RTVSPost2010Prop44ColorRGB
 90
      255
102
RTVSPost2010PropOp44
 70
     0
102
RTVSPost2010Prop45
280
     0
102
RTVSPost2010PropOp45
 70
     0
102
RTVSPost2010Prop46
 90
       50
102
RTVSPost2010PropOp46
 70
     0
102
RTVSPost2010Prop47
 90
       50
102
RTVSPost2010PropOp47
 70
     0
102
RTVSPost2010Prop48
 90
       50
102
RTVSPost2010PropOp48
 70
     0
102
RTVSPost2010Prop49
280
     0
102
RTVSPost2010PropOp49
 70
     0
102
RTVSPost2010Prop50
 90
       50
102
RTVSPost2010PropOp50
 70
     0
102
RTVSPost2010Prop51ColorIndex
 90
      256
102
RTVSPost2010Prop51ColorRGB
 90
-16777216
102
RTVSPost2010PropOp51
 70
     0
102
RTVSPost2010Prop52
140
1.0
102
RTVSPost2010PropOp52
 70
     0
102
RTVSPost2010Prop53
 90
        2
102
RTVSPost2010PropOp53
 70
     0
102
RTVSPost2010Prop54
  1
strokes_ogs.tif
102
RTVSPost2010PropOp54
 70
     0
102
RTVSPost2010Prop55
280
     0
102
RTVSPost2010PropOp55
 70
     0
102
RTVSPost2010Prop56
140
1.0
102
RTVSPost2010PropOp56
 70
     0
102
RTVSPost2010Prop57
140
1.0
102
RTVSPost2010PropOp57
 70
     0
  0
XRECORD
  5
14E
102
{ACAD_REACTORS
330
14D
102
}
330
14D
100
AcDbXrecord
280
     1
102
RTVSPropertyOp0
 70
     1
102
RTVSPropertyOp1
 70
     1
102
RTVSPropertyOp2
 70
     1
102
RTVSPropertyOp3
 70
     1
102
RTVSPropertyOp4
 70
     1
102
RTVSPropertyOp5
 70
     1
102
RTVSPropertyOp6
 70
     1
102
RTVSPropertyOp7
 70
     1
102
RTVSPropertyOp8
 70
     1
102
RTVSPropertyOp9
 70
     1
102
RTVSPropertyOp10
 70
     1
102
RTVSPropertyOp11
 70
     1
102
RTVSPropertyOp12
 70
     1
102
RTVSPropertyOp13
 70
     1
102
RTVSPropertyOp14
 70
     1
102
RTVSPropertyOp15
 70
     1
102
RTVSPropertyOp16
 70
     1
102
RTVSPropertyOp17
 70
     1
102
RTVSPropertyOp18
 70
     1
102
RTVSPropertyOp19
 70
     1
102
RTVSPropertyOp20
 70
     1
102
RTVSPropertyOp21
 70
     1
102
RTVSPropertyOp22
 70
     1
102
RTVSPropertyOp23
 70
     1
102
RTVSPropertyOp24
 70
     1
102
RTVSPropertyOp25
 70
     1
102
RTVSPropertyOp26
 70
     1
102
RTVSPropertyOp27
 70
     1
102
RTVSPropertyOp28
 70
     1
102
RTVSPropertyOp29
 70
     1
102
RTVSPropertyOp30
 70
     1
102
RTVSPropertyOp31
 70
     1
102
RTVSPropertyOp32
 70
     1
102
RTVSPropertyOp33
 70
     1
102
RTVSPropertyOp34
 70
     1
102
RTVSPropertyOp35
 70
     1
102
RTVSPropertyOp36
 70
     1
102
RTVSPropertyOp37
 70
     1
102
RTVSPropertyOp38
 70
     1
102
RTVSPropertyOp39
 70
     1
102
RTVSPropertyOp40
 70
     1
102
RTVSPropertyOp41
 70
     1
102
RTVSPropertyOp42
 70
     1
102
RTVSPropertyOp43
 70
     1
102
RTVSPropertyOp44
 70
     1
102
RTVSPropertyOp45
 70
     1
102
RTVSPropertyOp46
 70
     1
102
RTVSPropertyOp47
 70
     1
102
RTVSPropertyOp48
 70
     1
102
RTVSPropertyOp49
 70
     1
102
RTVSPropertyOp50
 70
     1
102
RTVSPropertyOp51
 70
     0
102
RTVSPropertyOp52
 70
     0
102
RTVSPropertyOp53
 70
     1
102
RTVSPropertyOp54
 70
     1
102
RTVSPropertyOp55
 70
     1
102
RTVSPropertyOp56
 70
     1
102
RTVSPropertyOp57
 70
     1
102
RTVSPost2010Prop28
280
     0
102
RTVSPost2010PropOp28
 70
     1
102
RTVSPost2010Prop29
280
     1
102
RTVSPost2010PropOp29
 70
     1
102
RTVSPost2010Prop30
280
     1
102
RTVSPost2010PropOp30
 70
     1
102
RTVSPost2010Prop31
280
     0
102
RTVSPost2010PropOp31
 70
     1
102
RTVSPost2010Prop32
280
     0
102
RTVSPost2010PropOp32
 70
     1
102
RTVSPost2010Prop33
280
     0
102
RTVSPost2010PropOp33
 70
     1
102
RTVSPost2010Prop34
280
     0
102
RTVSPost2010PropOp34
 70
     1
102
RTVSPost2010Prop35
280
     0
102
RTVSPost2010PropOp35
 70
     1
102
RTVSPost2010Prop36
280
     0
102
RTVSPost2010PropOp36
 70
     1
102
RTVSPost2010Prop37
 90
       50
102
RTVSPost2010PropOp37
 70
     1
102
RTVSPost2010Prop38
140
0.0
102
RTVSPost2010PropOp38
 70
     1
102
RTVSPost2010Prop39
140
1.0
102
RTVSPost2010PropOp39
 70
     1
102
RTVSPost2010Prop40
 90
        0
102
RTVSPost2010PropOp40
 70
     1
102
RTVSPost2010Prop41ColorIndex
 90
       18
102
RTVSPost2010Prop41ColorRGB
 90
        0
102
RTVSPost2010PropOp41
 70
     1
102
RTVSPost2010Prop42
 90
       50
102
RTVSPost2010PropOp42
 70
     1
102
RTVSPost2010Prop43
 90
        3
102
RTVSPost2010PropOp43
 70
     1
102
RTVSPost2010Prop44ColorIndex
 90
        5
102
RTVSPost2010Prop44ColorRGB
 90
      255
102
RTVSPost2010PropOp44
 70
     1
102
RTVSPost2010Prop45
280
     0
102
RTVSPost2010PropOp45
 70
     1
102
RTVSPost2010Prop46
 90
       50
102
RTVSPost2010PropOp46
 70
     1
102
RTVSPost2010Prop47
 90
       50
102
RTVSPost2010PropOp47
 70
     1
102
RTVSPost2010Prop48
 90
       50
102
RTVSPost2010PropOp48
 70
     1
102
RTVSPost2010Prop49
280
     0
102
RTVSPost2010PropOp49
 70
     1
102
RTVSPost2010Prop50
 90
       50
102
RTVSPost2010PropOp50
 70
     1
102
RTVSPost2010Prop51ColorIndex
 90
      256
102
RTVSPost2010Prop51ColorRGB
 90
-16777216
102
RTVSPost2010PropOp51
 70
     0
102
RTVSPost2010Prop52
140
1.0
102
RTVSPost2010PropOp52
 70
     0
102
RTVSPost2010Prop53
 90
        2
102
RTVSPost2010PropOp53
 70
     1
102
RTVSPost2010Prop54
  1
strokes_ogs.tif
102
RTVSPost2010PropOp54
 70
     1
102
RTVSPost2010Prop55
280
     0
102
RTVSPost2010PropOp55
 70
     1
102
RTVSPost2010Prop56
140
1.0
102
RTVSPost2010PropOp56
 70
     1
102
RTVSPost2010Prop57
140
1.0
102
RTVSPost2010PropOp57
 70
     1
  0
XRECORD
  5
156
102
{ACAD_REACTORS
330
155
102
}
330
155
100
AcDbXrecord
280
     1
102
RTVSPropertyOp0
 70
     0
102
RTVSPropertyOp1
 70
     0
102
RTVSPropertyOp2
 70
     0
102
RTVSPropertyOp3
 70
     0
102
RTVSPropertyOp4
 70
     0
102
RTVSPropertyOp5
 70
     0
102
RTVSPropertyOp6
 70
     0
102
RTVSPropertyOp7
 70
     0
102
RTVSPropertyOp8
 70
     0
102
RTVSPropertyOp9
 70
     0
102
RTVSPropertyOp10
 70
     0
102
RTVSPropertyOp11
 70
     0
102
RTVSPropertyOp12
 70
     0
102
RTVSPropertyOp13
 70
     0
102
RTVSPropertyOp14
 70
     2
102
RTVSPropertyOp15
 70
     0
102
RTVSPropertyOp16
 70
     0
102
RTVSPropertyOp17
 70
     0
102
RTVSPropertyOp18
 70
     0
102
RTVSPropertyOp19
 70
     0
102
RTVSPropertyOp20
 70
     0
102
RTVSPropertyOp21
 70
     0
102
RTVSPropertyOp22
 70
     0
102
RTVSPropertyOp23
 70
     0
102
RTVSPropertyOp24
 70
     0
102
RTVSPropertyOp25
 70
     0
102
RTVSPropertyOp26
 70
     0
102
RTVSPropertyOp27
 70
     0
102
RTVSPropertyOp28
 70
     0
102
RTVSPropertyOp29
 70
     0
102
RTVSPropertyOp30
 70
     0
102
RTVSPropertyOp31
 70
     0
102
RTVSPropertyOp32
 70
     0
102
RTVSPropertyOp33
 70
     0
102
RTVSPropertyOp34
 70
     0
102
RTVSPropertyOp35
 70
     0
102
RTVSPropertyOp36
 70
     0
102
RTVSPropertyOp37
 70
     0
102
RTVSPropertyOp38
 70
     0
102
RTVSPropertyOp39
 70
     0
102
RTVSPropertyOp40
 70
     0
102
RTVSPropertyOp41
 70
     0
102
RTVSPropertyOp42
 70
     0
102
RTVSPropertyOp43
 70
     0
102
RTVSPropertyOp44
 70
     0
102
RTVSPropertyOp45
 70
     0
102
RTVSPropertyOp46
 70
     0
102
RTVSPropertyOp47
 70
     0
102
RTVSPropertyOp48
 70
     0
102
RTVSPropertyOp49
 70
     0
102
RTVSPropertyOp50
 70
     0
102
RTVSPropertyOp51
 70
     0
102
RTVSPropertyOp52
 70
     0
102
RTVSPropertyOp53
 70
     0
102
RTVSPropertyOp54
 70
     0
102
RTVSPropertyOp55
 70
     0
102
RTVSPropertyOp56
 70
     0
102
RTVSPropertyOp57
 70
     0
102
RTVSPost2010Prop28
280
     0
102
RTVSPost2010PropOp28
 70
     0
102
RTVSPost2010Prop29
280
     1
102
RTVSPost2010PropOp29
 70
     0
102
RTVSPost2010Prop30
280
     1
102
RTVSPost2010PropOp30
 70
     0
102
RTVSPost2010Prop31
280
     0
102
RTVSPost2010PropOp31
 70
     0
102
RTVSPost2010Prop32
280
     0
102
RTVSPost2010PropOp32
 70
     0
102
RTVSPost2010Prop33
280
     0
102
RTVSPost2010PropOp33
 70
     0
102
RTVSPost2010Prop34
280
     0
102
RTVSPost2010PropOp34
 70
     0
102
RTVSPost2010Prop35
280
     0
102
RTVSPost2010PropOp35
 70
     0
102
RTVSPost2010Prop36
280
     0
102
RTVSPost2010PropOp36
 70
     0
102
RTVSPost2010Prop37
 90
       50
102
RTVSPost2010PropOp37
 70
     0
102
RTVSPost2010Prop38
140
0.0
102
RTVSPost2010PropOp38
 70
     0
102
RTVSPost2010Prop39
140
1.0
102
RTVSPost2010PropOp39
 70
     0
102
RTVSPost2010Prop40
 90
        0
102
RTVSPost2010PropOp40
 70
     0
102
RTVSPost2010Prop41ColorIndex
 90
       18
102
RTVSPost2010Prop41ColorRGB
 90
        0
102
RTVSPost2010PropOp41
 70
     0
102
RTVSPost2010Prop42
 90
       50
102
RTVSPost2010PropOp42
 70
     0
102
RTVSPost2010Prop43
 90
        3
102
RTVSPost2010PropOp43
 70
     0
102
RTVSPost2010Prop44ColorIndex
 90
        5
102
RTVSPost2010Prop44ColorRGB
 90
      255
102
RTVSPost2010PropOp44
 70
     0
102
RTVSPost2010Prop45
280
     0
102
RTVSPost2010PropOp45
 70
     0
102
RTVSPost2010Prop46
 90
       50
102
RTVSPost2010PropOp46
 70
     0
102
RTVSPost2010Prop47
 90
       50
102
RTVSPost2010PropOp47
 70
     0
102
RTVSPost2010Prop48
 90
       50
102
RTVSPost2010PropOp48
 70
     0
102
RTVSPost2010Prop49
280
     0
102
RTVSPost2010PropOp49
 70
     0
102
RTVSPost2010Prop50
 90
       50
102
RTVSPost2010PropOp50
 70
     0
102
RTVSPost2010Prop51ColorIndex
 90
      256
102
RTVSPost2010Prop51ColorRGB
 90
-16777216
102
RTVSPost2010PropOp51
 70
     0
102
RTVSPost2010Prop52
140
1.0
102
RTVSPost2010PropOp52
 70
     0
102
RTVSPost2010Prop53
 90
        2
102
RTVSPost2010PropOp53
 70
     0
102
RTVSPost2010Prop54
  1
strokes_ogs.tif
102
RTVSPost2010PropOp54
 70
     0
102
RTVSPost2010Prop55
280
     0
102
RTVSPost2010PropOp55
 70
     0
102
RTVSPost2010Prop56
140
1.0
102
RTVSPost2010PropOp56
 70
     0
102
RTVSPost2010Prop57
140
1.0
102
RTVSPost2010PropOp57
 70
     0
  0
XRECORD
  5
144
102
{ACAD_REACTORS
330
143
102
}
330
143
100
AcDbXrecord
280
     1
102
RTVSPropertyOp0
 70
     1
102
RTVSPropertyOp1
 70
     1
102
RTVSPropertyOp2
 70
     1
102
RTVSPropertyOp3
 70
     1
102
RTVSPropertyOp4
 70
     1
102
RTVSPropertyOp5
 70
     1
102
RTVSPropertyOp6
 70
     1
102
RTVSPropertyOp7
 70
     1
102
RTVSPropertyOp8
 70
     1
102
RTVSPropertyOp9
 70
     1
102
RTVSPropertyOp10
 70
     1
102
RTVSPropertyOp11
 70
     1
102
RTVSPropertyOp12
 70
     1
102
RTVSPropertyOp13
 70
     1
102
RTVSPropertyOp14
 70
     1
102
RTVSPropertyOp15
 70
     1
102
RTVSPropertyOp16
 70
     1
102
RTVSPropertyOp17
 70
     1
102
RTVSPropertyOp18
 70
     1
102
RTVSPropertyOp19
 70
     1
102
RTVSPropertyOp20
 70
     1
102
RTVSPropertyOp21
 70
     1
102
RTVSPropertyOp22
 70
     1
102
RTVSPropertyOp23
 70
     1
102
RTVSPropertyOp24
 70
     1
102
RTVSPropertyOp25
 70
     1
102
RTVSPropertyOp26
 70
     1
102
RTVSPropertyOp27
 70
     1
102
RTVSPropertyOp28
 70
     1
102
RTVSPropertyOp29
 70
     1
102
RTVSPropertyOp30
 70
     1
102
RTVSPropertyOp31
 70
     1
102
RTVSPropertyOp32
 70
     1
102
RTVSPropertyOp33
 70
     1
102
RTVSPropertyOp34
 70
     1
102
RTVSPropertyOp35
 70
     1
102
RTVSPropertyOp36
 70
     1
102
RTVSPropertyOp37
 70
     1
102
RTVSPropertyOp38
 70
     1
102
RTVSPropertyOp39
 70
     1
102
RTVSPropertyOp40
 70
     1
102
RTVSPropertyOp41
 70
     1
102
RTVSPropertyOp42
 70
     1
102
RTVSPropertyOp43
 70
     1
102
RTVSPropertyOp44
 70
     1
102
RTVSPropertyOp45
 70
     1
102
RTVSPropertyOp46
 70
     1
102
RTVSPropertyOp47
 70
     1
102
RTVSPropertyOp48
 70
     1
102
RTVSPropertyOp49
 70
     1
102
RTVSPropertyOp50
 70
     1
102
RTVSPropertyOp51
 70
     0
102
RTVSPropertyOp52
 70
     0
102
RTVSPropertyOp53
 70
     1
102
RTVSPropertyOp54
 70
     1
102
RTVSPropertyOp55
 70
     1
102
RTVSPropertyOp56
 70
     1
102
RTVSPropertyOp57
 70
     1
102
RTVSPost2010Prop28
280
     0
102
RTVSPost2010PropOp28
 70
     1
102
RTVSPost2010Prop29
280
     1
102
RTVSPost2010PropOp29
 70
     1
102
RTVSPost2010Prop30
280
     1
102
RTVSPost2010PropOp30
 70
     1
102
RTVSPost2010Prop31
280
     0
102
RTVSPost2010PropOp31
 70
     1
102
RTVSPost2010Prop32
280
     0
102
RTVSPost2010PropOp32
 70
     1
102
RTVSPost2010Prop33
280
     0
102
RTVSPost2010PropOp33
 70
     1
102
RTVSPost2010Prop34
280
     0
102
RTVSPost2010PropOp34
 70
     1
102
RTVSPost2010Prop35
280
     0
102
RTVSPost2010PropOp35
 70
     1
102
RTVSPost2010Prop36
280
     0
102
RTVSPost2010PropOp36
 70
     1
102
RTVSPost2010Prop37
 90
       50
102
RTVSPost2010PropOp37
 70
     1
102
RTVSPost2010Prop38
140
0.0
102
RTVSPost2010PropOp38
 70
     1
102
RTVSPost2010Prop39
140
1.0
102
RTVSPost2010PropOp39
 70
     1
102
RTVSPost2010Prop40
 90
        0
102
RTVSPost2010PropOp40
 70
     1
102
RTVSPost2010Prop41ColorIndex
 90
       18
102
RTVSPost2010Prop41ColorRGB
 90
        0
102
RTVSPost2010PropOp41
 70
     1
102
RTVSPost2010Prop42
 90
       50
102
RTVSPost2010PropOp42
 70
     1
102
RTVSPost2010Prop43
 90
        3
102
RTVSPost2010PropOp43
 70
     1
102
RTVSPost2010Prop44ColorIndex
 90
        5
102
RTVSPost2010Prop44ColorRGB
 90
      255
102
RTVSPost2010PropOp44
 70
     1
102
RTVSPost2010Prop45
280
     0
102
RTVSPost2010PropOp45
 70
     1
102
RTVSPost2010Prop46
 90
       50
102
RTVSPost2010PropOp46
 70
     1
102
RTVSPost2010Prop47
 90
       50
102
RTVSPost2010PropOp47
 70
     1
102
RTVSPost2010Prop48
 90
       50
102
RTVSPost2010PropOp48
 70
     1
102
RTVSPost2010Prop49
280
     0
102
RTVSPost2010PropOp49
 70
     1
102
RTVSPost2010Prop50
 90
       50
102
RTVSPost2010PropOp50
 70
     1
102
RTVSPost2010Prop51ColorIndex
 90
      256
102
RTVSPost2010Prop51ColorRGB
 90
-16777216
102
RTVSPost2010PropOp51
 70
     0
102
RTVSPost2010Prop52
140
1.0
102
RTVSPost2010PropOp52
 70
     0
102
RTVSPost2010Prop53
 90
        2
102
RTVSPost2010PropOp53
 70
     1
102
RTVSPost2010Prop54
  1
strokes_ogs.tif
102
RTVSPost2010PropOp54
 70
     1
102
RTVSPost2010Prop55
280
     0
102
RTVSPost2010PropOp55
 70
     1
102
RTVSPost2010Prop56
140
1.0
102
RTVSPost2010PropOp56
 70
     1
102
RTVSPost2010Prop57
140
1.0
102
RTVSPost2010PropOp57
 70
     1
  0
XRECORD
  5
162
102
{ACAD_REACTORS
330
161
102
}
330
161
100
AcDbXrecord
280
     1
102
RTVSPropertyOp0
 70
     1
102
RTVSPropertyOp1
 70
     1
102
RTVSPropertyOp2
 70
     1
102
RTVSPropertyOp3
 70
     1
102
RTVSPropertyOp4
 70
     1
102
RTVSPropertyOp5
 70
     1
102
RTVSPropertyOp6
 70
     1
102
RTVSPropertyOp7
 70
     1
102
RTVSPropertyOp8
 70
     1
102
RTVSPropertyOp9
 70
     1
102
RTVSPropertyOp10
 70
     1
102
RTVSPropertyOp11
 70
     1
102
RTVSPropertyOp12
 70
     1
102
RTVSPropertyOp13
 70
     1
102
RTVSPropertyOp14
 70
     1
102
RTVSPropertyOp15
 70
     1
102
RTVSPropertyOp16
 70
     1
102
RTVSPropertyOp17
 70
     1
102
RTVSPropertyOp18
 70
     1
102
RTVSPropertyOp19
 70
     1
102
RTVSPropertyOp20
 70
     1
102
RTVSPropertyOp21
 70
     1
102
RTVSPropertyOp22
 70
     1
102
RTVSPropertyOp23
 70
     1
102
RTVSPropertyOp24
 70
     1
102
RTVSPropertyOp25
 70
     1
102
RTVSPropertyOp26
 70
     1
102
RTVSPropertyOp27
 70
     1
102
RTVSPropertyOp28
 70
     1
102
RTVSPropertyOp29
 70
     1
102
RTVSPropertyOp30
 70
     1
102
RTVSPropertyOp31
 70
     1
102
RTVSPropertyOp32
 70
     1
102
RTVSPropertyOp33
 70
     1
102
RTVSPropertyOp34
 70
     1
102
RTVSPropertyOp35
 70
     1
102
RTVSPropertyOp36
 70
     1
102
RTVSPropertyOp37
 70
     1
102
RTVSPropertyOp38
 70
     1
102
RTVSPropertyOp39
 70
     1
102
RTVSPropertyOp40
 70
     1
102
RTVSPropertyOp41
 70
     1
102
RTVSPropertyOp42
 70
     1
102
RTVSPropertyOp43
 70
     1
102
RTVSPropertyOp44
 70
     1
102
RTVSPropertyOp45
 70
     1
102
RTVSPropertyOp46
 70
     1
102
RTVSPropertyOp47
 70
     1
102
RTVSPropertyOp48
 70
     1
102
RTVSPropertyOp49
 70
     1
102
RTVSPropertyOp50
 70
     1
102
RTVSPropertyOp51
 70
     0
102
RTVSPropertyOp52
 70
     0
102
RTVSPropertyOp53
 70
     1
102
RTVSPropertyOp54
 70
     1
102
RTVSPropertyOp55
 70
     1
102
RTVSPropertyOp56
 70
     1
102
RTVSPropertyOp57
 70
     1
102
RTVSPost2010Prop28
280
     0
102
RTVSPost2010PropOp28
 70
     1
102
RTVSPost2010Prop29
280
     1
102
RTVSPost2010PropOp29
 70
     1
102
RTVSPost2010Prop30
280
     1
102
RTVSPost2010PropOp30
 70
     1
102
RTVSPost2010Prop31
280
     0
102
RTVSPost2010PropOp31
 70
     1
102
RTVSPost2010Prop32
280
     0
102
RTVSPost2010PropOp32
 70
     1
102
RTVSPost2010Prop33
280
     0
102
RTVSPost2010PropOp33
 70
     1
102
RTVSPost2010Prop34
280
     0
102
RTVSPost2010PropOp34
 70
     1
102
RTVSPost2010Prop35
280
     0
102
RTVSPost2010PropOp35
 70
     1
102
RTVSPost2010Prop36
280
     0
102
RTVSPost2010PropOp36
 70
     1
102
RTVSPost2010Prop37
 90
       50
102
RTVSPost2010PropOp37
 70
     1
102
RTVSPost2010Prop38
140
0.0
102
RTVSPost2010PropOp38
 70
     1
102
RTVSPost2010Prop39
140
1.0
102
RTVSPost2010PropOp39
 70
     1
102
RTVSPost2010Prop40
 90
        0
102
RTVSPost2010PropOp40
 70
     1
102
RTVSPost2010Prop41ColorIndex
 90
       18
102
RTVSPost2010Prop41ColorRGB
 90
        0
102
RTVSPost2010PropOp41
 70
     1
102
RTVSPost2010Prop42
 90
       50
102
RTVSPost2010PropOp42
 70
     1
102
RTVSPost2010Prop43
 90
        3
102
RTVSPost2010PropOp43
 70
     1
102
RTVSPost2010Prop44ColorIndex
 90
        5
102
RTVSPost2010Prop44ColorRGB
 90
      255
102
RTVSPost2010PropOp44
 70
     1
102
RTVSPost2010Prop45
280
     0
102
RTVSPost2010PropOp45
 70
     1
102
RTVSPost2010Prop46
 90
       50
102
RTVSPost2010PropOp46
 70
     1
102
RTVSPost2010Prop47
 90
       50
102
RTVSPost2010PropOp47
 70
     1
102
RTVSPost2010Prop48
 90
       50
102
RTVSPost2010PropOp48
 70
     1
102
RTVSPost2010Prop49
280
     0
102
RTVSPost2010PropOp49
 70
     1
102
RTVSPost2010Prop50
 90
       50
102
RTVSPost2010PropOp50
 70
     1
102
RTVSPost2010Prop51ColorIndex
 90
      256
102
RTVSPost2010Prop51ColorRGB
 90
-16777216
102
RTVSPost2010PropOp51
 70
     0
102
RTVSPost2010Prop52
140
1.0
102
RTVSPost2010PropOp52
 70
     0
102
RTVSPost2010Prop53
 90
        2
102
RTVSPost2010PropOp53
 70
     1
102
RTVSPost2010Prop54
  1
strokes_ogs.tif
102
RTVSPost2010PropOp54
 70
     1
102
RTVSPost2010Prop55
280
     0
102
RTVSPost2010PropOp55
 70
     1
102
RTVSPost2010Prop56
140
1.0
102
RTVSPost2010PropOp56
 70
     1
102
RTVSPost2010Prop57
140
1.0
102
RTVSPost2010PropOp57
 70
     1
  0
XRECORD
  5
160
102
{ACAD_REACTORS
330
15F
102
}
330
15F
100
AcDbXrecord
280
     1
102
RTVSPropertyOp0
 70
     1
102
RTVSPropertyOp1
 70
     1
102
RTVSPropertyOp2
 70
     1
102
RTVSPropertyOp3
 70
     1
102
RTVSPropertyOp4
 70
     1
102
RTVSPropertyOp5
 70
     1
102
RTVSPropertyOp6
 70
     1
102
RTVSPropertyOp7
 70
     1
102
RTVSPropertyOp8
 70
     1
102
RTVSPropertyOp9
 70
     1
102
RTVSPropertyOp10
 70
     1
102
RTVSPropertyOp11
 70
     1
102
RTVSPropertyOp12
 70
     1
102
RTVSPropertyOp13
 70
     1
102
RTVSPropertyOp14
 70
     1
102
RTVSPropertyOp15
 70
     1
102
RTVSPropertyOp16
 70
     1
102
RTVSPropertyOp17
 70
     1
102
RTVSPropertyOp18
 70
     1
102
RTVSPropertyOp19
 70
     1
102
RTVSPropertyOp20
 70
     1
102
RTVSPropertyOp21
 70
     1
102
RTVSPropertyOp22
 70
     1
102
RTVSPropertyOp23
 70
     1
102
RTVSPropertyOp24
 70
     1
102
RTVSPropertyOp25
 70
     1
102
RTVSPropertyOp26
 70
     1
102
RTVSPropertyOp27
 70
     1
102
RTVSPropertyOp28
 70
     1
102
RTVSPropertyOp29
 70
     1
102
RTVSPropertyOp30
 70
     1
102
RTVSPropertyOp31
 70
     1
102
RTVSPropertyOp32
 70
     1
102
RTVSPropertyOp33
 70
     1
102
RTVSPropertyOp34
 70
     1
102
RTVSPropertyOp35
 70
     1
102
RTVSPropertyOp36
 70
     1
102
RTVSPropertyOp37
 70
     1
102
RTVSPropertyOp38
 70
     1
102
RTVSPropertyOp39
 70
     1
102
RTVSPropertyOp40
 70
     1
102
RTVSPropertyOp41
 70
     1
102
RTVSPropertyOp42
 70
     1
102
RTVSPropertyOp43
 70
     1
102
RTVSPropertyOp44
 70
     1
102
RTVSPropertyOp45
 70
     1
102
RTVSPropertyOp46
 70
     1
102
RTVSPropertyOp47
 70
     1
102
RTVSPropertyOp48
 70
     1
102
RTVSPropertyOp49
 70
     1
102
RTVSPropertyOp50
 70
     1
102
RTVSPropertyOp51
 70
     0
102
RTVSPropertyOp52
 70
     0
102
RTVSPropertyOp53
 70
     1
102
RTVSPropertyOp54
 70
     1
102
RTVSPropertyOp55
 70
     1
102
RTVSPropertyOp56
 70
     1
102
RTVSPropertyOp57
 70
     1
102
RTVSPost2010Prop28
280
     0
102
RTVSPost2010PropOp28
 70
     1
102
RTVSPost2010Prop29
280
     1
102
RTVSPost2010PropOp29
 70
     1
102
RTVSPost2010Prop30
280
     1
102
RTVSPost2010PropOp30
 70
     1
102
RTVSPost2010Prop31
280
     0
102
RTVSPost2010PropOp31
 70
     1
102
RTVSPost2010Prop32
280
     0
102
RTVSPost2010PropOp32
 70
     1
102
RTVSPost2010Prop33
280
     0
102
RTVSPost2010PropOp33
 70
     1
102
RTVSPost2010Prop34
280
     0
102
RTVSPost2010PropOp34
 70
     1
102
RTVSPost2010Prop35
280
     0
102
RTVSPost2010PropOp35
 70
     1
102
RTVSPost2010Prop36
280
     0
102
RTVSPost2010PropOp36
 70
     1
102
RTVSPost2010Prop37
 90
       50
102
RTVSPost2010PropOp37
 70
     1
102
RTVSPost2010Prop38
140
0.0
102
RTVSPost2010PropOp38
 70
     1
102
RTVSPost2010Prop39
140
1.0
102
RTVSPost2010PropOp39
 70
     1
102
RTVSPost2010Prop40
 90
        0
102
RTVSPost2010PropOp40
 70
     1
102
RTVSPost2010Prop41ColorIndex
 90
       18
102
RTVSPost2010Prop41ColorRGB
 90
        0
102
RTVSPost2010PropOp41
 70
     1
102
RTVSPost2010Prop42
 90
       50
102
RTVSPost2010PropOp42
 70
     1
102
RTVSPost2010Prop43
 90
        3
102
RTVSPost2010PropOp43
 70
     1
102
RTVSPost2010Prop44ColorIndex
 90
        5
102
RTVSPost2010Prop44ColorRGB
 90
      255
102
RTVSPost2010PropOp44
 70
     1
102
RTVSPost2010Prop45
280
     0
102
RTVSPost2010PropOp45
 70
     1
102
RTVSPost2010Prop46
 90
       50
102
RTVSPost2010PropOp46
 70
     1
102
RTVSPost2010Prop47
 90
       50
102
RTVSPost2010PropOp47
 70
     1
102
RTVSPost2010Prop48
 90
       50
102
RTVSPost2010PropOp48
 70
     1
102
RTVSPost2010Prop49
280
     0
102
RTVSPost2010PropOp49
 70
     1
102
RTVSPost2010Prop50
 90
       50
102
RTVSPost2010PropOp50
 70
     1
102
RTVSPost2010Prop51ColorIndex
 90
      256
102
RTVSPost2010Prop51ColorRGB
 90
-16777216
102
RTVSPost2010PropOp51
 70
     0
102
RTVSPost2010Prop52
140
1.0
102
RTVSPost2010PropOp52
 70
     0
102
RTVSPost2010Prop53
 90
        2
102
RTVSPost2010PropOp53
 70
     1
102
RTVSPost2010Prop54
  1
strokes_ogs.tif
102
RTVSPost2010PropOp54
 70
     1
102
RTVSPost2010Prop55
280
     0
102
RTVSPost2010PropOp55
 70
     1
102
RTVSPost2010Prop56
140
1.0
102
RTVSPost2010PropOp56
 70
     1
102
RTVSPost2010Prop57
140
1.0
102
RTVSPost2010PropOp57
 70
     1
  0
XRECORD
  5
15A
102
{ACAD_REACTORS
330
159
102
}
330
159
100
AcDbXrecord
280
     1
102
RTVSPropertyOp0
 70
     1
102
RTVSPropertyOp1
 70
     1
102
RTVSPropertyOp2
 70
     1
102
RTVSPropertyOp3
 70
     1
102
RTVSPropertyOp4
 70
     1
102
RTVSPropertyOp5
 70
     1
102
RTVSPropertyOp6
 70
     1
102
RTVSPropertyOp7
 70
     1
102
RTVSPropertyOp8
 70
     1
102
RTVSPropertyOp9
 70
     1
102
RTVSPropertyOp10
 70
     1
102
RTVSPropertyOp11
 70
     1
102
RTVSPropertyOp12
 70
     1
102
RTVSPropertyOp13
 70
     1
102
RTVSPropertyOp14
 70
     1
102
RTVSPropertyOp15
 70
     1
102
RTVSPropertyOp16
 70
     1
102
RTVSPropertyOp17
 70
     1
102
RTVSPropertyOp18
 70
     1
102
RTVSPropertyOp19
 70
     1
102
RTVSPropertyOp20
 70
     1
102
RTVSPropertyOp21
 70
     1
102
RTVSPropertyOp22
 70
     1
102
RTVSPropertyOp23
 70
     1
102
RTVSPropertyOp24
 70
     1
102
RTVSPropertyOp25
 70
     1
102
RTVSPropertyOp26
 70
     1
102
RTVSPropertyOp27
 70
     1
102
RTVSPropertyOp28
 70
     1
102
RTVSPropertyOp29
 70
     1
102
RTVSPropertyOp30
 70
     1
102
RTVSPropertyOp31
 70
     1
102
RTVSPropertyOp32
 70
     1
102
RTVSPropertyOp33
 70
     1
102
RTVSPropertyOp34
 70
     1
102
RTVSPropertyOp35
 70
     1
102
RTVSPropertyOp36
 70
     1
102
RTVSPropertyOp37
 70
     1
102
RTVSPropertyOp38
 70
     1
102
RTVSPropertyOp39
 70
     1
102
RTVSPropertyOp40
 70
     1
102
RTVSPropertyOp41
 70
     1
102
RTVSPropertyOp42
 70
     1
102
RTVSPropertyOp43
 70
     1
102
RTVSPropertyOp44
 70
     1
102
RTVSPropertyOp45
 70
     1
102
RTVSPropertyOp46
 70
     1
102
RTVSPropertyOp47
 70
     1
102
RTVSPropertyOp48
 70
     1
102
RTVSPropertyOp49
 70
     1
102
RTVSPropertyOp50
 70
     1
102
RTVSPropertyOp51
 70
     0
102
RTVSPropertyOp52
 70
     0
102
RTVSPropertyOp53
 70
     1
102
RTVSPropertyOp54
 70
     1
102
RTVSPropertyOp55
 70
     1
102
RTVSPropertyOp56
 70
     1
102
RTVSPropertyOp57
 70
     1
102
RTVSPost2010Prop28
280
     0
102
RTVSPost2010PropOp28
 70
     1
102
RTVSPost2010Prop29
280
     1
102
RTVSPost2010PropOp29
 70
     1
102
RTVSPost2010Prop30
280
     1
102
RTVSPost2010PropOp30
 70
     1
102
RTVSPost2010Prop31
280
     0
102
RTVSPost2010PropOp31
 70
     1
102
RTVSPost2010Prop32
280
     0
102
RTVSPost2010PropOp32
 70
     1
102
RTVSPost2010Prop33
280
     0
102
RTVSPost2010PropOp33
 70
     1
102
RTVSPost2010Prop34
280
     0
102
RTVSPost2010PropOp34
 70
     1
102
RTVSPost2010Prop35
280
     0
102
RTVSPost2010PropOp35
 70
     1
102
RTVSPost2010Prop36
280
     0
102
RTVSPost2010PropOp36
 70
     1
102
RTVSPost2010Prop37
 90
       50
102
RTVSPost2010PropOp37
 70
     1
102
RTVSPost2010Prop38
140
0.0
102
RTVSPost2010PropOp38
 70
     1
102
RTVSPost2010Prop39
140
1.0
102
RTVSPost2010PropOp39
 70
     1
102
RTVSPost2010Prop40
 90
        0
102
RTVSPost2010PropOp40
 70
     1
102
RTVSPost2010Prop41ColorIndex
 90
       18
102
RTVSPost2010Prop41ColorRGB
 90
        0
102
RTVSPost2010PropOp41
 70
     1
102
RTVSPost2010Prop42
 90
       50
102
RTVSPost2010PropOp42
 70
     1
102
RTVSPost2010Prop43
 90
        3
102
RTVSPost2010PropOp43
 70
     1
102
RTVSPost2010Prop44ColorIndex
 90
        5
102
RTVSPost2010Prop44ColorRGB
 90
      255
102
RTVSPost2010PropOp44
 70
     1
102
RTVSPost2010Prop45
280
     0
102
RTVSPost2010PropOp45
 70
     1
102
RTVSPost2010Prop46
 90
       50
102
RTVSPost2010PropOp46
 70
     1
102
RTVSPost2010Prop47
 90
       50
102
RTVSPost2010PropOp47
 70
     1
102
RTVSPost2010Prop48
 90
       50
102
RTVSPost2010PropOp48
 70
     1
102
RTVSPost2010Prop49
280
     0
102
RTVSPost2010PropOp49
 70
     1
102
RTVSPost2010Prop50
 90
       50
102
RTVSPost2010PropOp50
 70
     1
102
RTVSPost2010Prop51ColorIndex
 90
      256
102
RTVSPost2010Prop51ColorRGB
 90
-16777216
102
RTVSPost2010PropOp51
 70
     0
102
RTVSPost2010Prop52
140
1.0
102
RTVSPost2010PropOp52
 70
     0
102
RTVSPost2010Prop53
 90
        2
102
RTVSPost2010PropOp53
 70
     1
102
RTVSPost2010Prop54
  1
strokes_ogs.tif
102
RTVSPost2010PropOp54
 70
     1
102
RTVSPost2010Prop55
280
     0
102
RTVSPost2010PropOp55
 70
     1
102
RTVSPost2010Prop56
140
1.0
102
RTVSPost2010PropOp56
 70
     1
102
RTVSPost2010Prop57
140
1.0
102
RTVSPost2010PropOp57
 70
     1
  0
XRECORD
  5
15C
102
{ACAD_REACTORS
330
15B
102
}
330
15B
100
AcDbXrecord
280
     1
102
RTVSPropertyOp0
 70
     1
102
RTVSPropertyOp1
 70
     1
102
RTVSPropertyOp2
 70
     1
102
RTVSPropertyOp3
 70
     1
102
RTVSPropertyOp4
 70
     1
102
RTVSPropertyOp5
 70
     1
102
RTVSPropertyOp6
 70
     1
102
RTVSPropertyOp7
 70
     1
102
RTVSPropertyOp8
 70
     1
102
RTVSPropertyOp9
 70
     1
102
RTVSPropertyOp10
 70
     1
102
RTVSPropertyOp11
 70
     1
102
RTVSPropertyOp12
 70
     1
102
RTVSPropertyOp13
 70
     1
102
RTVSPropertyOp14
 70
     1
102
RTVSPropertyOp15
 70
     1
102
RTVSPropertyOp16
 70
     1
102
RTVSPropertyOp17
 70
     1
102
RTVSPropertyOp18
 70
     1
102
RTVSPropertyOp19
 70
     1
102
RTVSPropertyOp20
 70
     1
102
RTVSPropertyOp21
 70
     1
102
RTVSPropertyOp22
 70
     1
102
RTVSPropertyOp23
 70
     1
102
RTVSPropertyOp24
 70
     1
102
RTVSPropertyOp25
 70
     1
102
RTVSPropertyOp26
 70
     1
102
RTVSPropertyOp27
 70
     1
102
RTVSPropertyOp28
 70
     1
102
RTVSPropertyOp29
 70
     1
102
RTVSPropertyOp30
 70
     1
102
RTVSPropertyOp31
 70
     1
102
RTVSPropertyOp32
 70
     1
102
RTVSPropertyOp33
 70
     1
102
RTVSPropertyOp34
 70
     1
102
RTVSPropertyOp35
 70
     1
102
RTVSPropertyOp36
 70
     1
102
RTVSPropertyOp37
 70
     1
102
RTVSPropertyOp38
 70
     1
102
RTVSPropertyOp39
 70
     1
102
RTVSPropertyOp40
 70
     1
102
RTVSPropertyOp41
 70
     1
102
RTVSPropertyOp42
 70
     1
102
RTVSPropertyOp43
 70
     1
102
RTVSPropertyOp44
 70
     1
102
RTVSPropertyOp45
 70
     1
102
RTVSPropertyOp46
 70
     1
102
RTVSPropertyOp47
 70
     1
102
RTVSPropertyOp48
 70
     1
102
RTVSPropertyOp49
 70
     1
102
RTVSPropertyOp50
 70
     1
102
RTVSPropertyOp51
 70
     0
102
RTVSPropertyOp52
 70
     0
102
RTVSPropertyOp53
 70
     1
102
RTVSPropertyOp54
 70
     1
102
RTVSPropertyOp55
 70
     1
102
RTVSPropertyOp56
 70
     1
102
RTVSPropertyOp57
 70
     1
102
RTVSPost2010Prop28
280
     0
102
RTVSPost2010PropOp28
 70
     1
102
RTVSPost2010Prop29
280
     1
102
RTVSPost2010PropOp29
 70
     1
102
RTVSPost2010Prop30
280
     1
102
RTVSPost2010PropOp30
 70
     1
102
RTVSPost2010Prop31
280
     0
102
RTVSPost2010PropOp31
 70
     1
102
RTVSPost2010Prop32
280
     0
102
RTVSPost2010PropOp32
 70
     1
102
RTVSPost2010Prop33
280
     0
102
RTVSPost2010PropOp33
 70
     1
102
RTVSPost2010Prop34
280
     0
102
RTVSPost2010PropOp34
 70
     1
102
RTVSPost2010Prop35
280
     0
102
RTVSPost2010PropOp35
 70
     1
102
RTVSPost2010Prop36
280
     0
102
RTVSPost2010PropOp36
 70
     1
102
RTVSPost2010Prop37
 90
       50
102
RTVSPost2010PropOp37
 70
     1
102
RTVSPost2010Prop38
140
0.0
102
RTVSPost2010PropOp38
 70
     1
102
RTVSPost2010Prop39
140
1.0
102
RTVSPost2010PropOp39
 70
     1
102
RTVSPost2010Prop40
 90
        0
102
RTVSPost2010PropOp40
 70
     1
102
RTVSPost2010Prop41ColorIndex
 90
       18
102
RTVSPost2010Prop41ColorRGB
 90
        0
102
RTVSPost2010PropOp41
 70
     1
102
RTVSPost2010Prop42
 90
       50
102
RTVSPost2010PropOp42
 70
     1
102
RTVSPost2010Prop43
 90
        3
102
RTVSPost2010PropOp43
 70
     1
102
RTVSPost2010Prop44ColorIndex
 90
        5
102
RTVSPost2010Prop44ColorRGB
 90
      255
102
RTVSPost2010PropOp44
 70
     1
102
RTVSPost2010Prop45
280
     0
102
RTVSPost2010PropOp45
 70
     1
102
RTVSPost2010Prop46
 90
       50
102
RTVSPost2010PropOp46
 70
     1
102
RTVSPost2010Prop47
 90
       50
102
RTVSPost2010PropOp47
 70
     1
102
RTVSPost2010Prop48
 90
       50
102
RTVSPost2010PropOp48
 70
     1
102
RTVSPost2010Prop49
280
     0
102
RTVSPost2010PropOp49
 70
     1
102
RTVSPost2010Prop50
 90
       50
102
RTVSPost2010PropOp50
 70
     1
102
RTVSPost2010Prop51ColorIndex
 90
      256
102
RTVSPost2010Prop51ColorRGB
 90
-16777216
102
RTVSPost2010PropOp51
 70
     0
102
RTVSPost2010Prop52
140
1.0
102
RTVSPost2010PropOp52
 70
     0
102
RTVSPost2010Prop53
 90
        2
102
RTVSPost2010PropOp53
 70
     1
102
RTVSPost2010Prop54
  1
strokes_ogs.tif
102
RTVSPost2010PropOp54
 70
     1
102
RTVSPost2010Prop55
280
     0
102
RTVSPost2010PropOp55
 70
     1
102
RTVSPost2010Prop56
140
1.0
102
RTVSPost2010PropOp56
 70
     1
102
RTVSPost2010Prop57
140
1.0
102
RTVSPost2010PropOp57
 70
     1
  0
XRECORD
  5
14C
102
{ACAD_REACTORS
330
14B
102
}
330
14B
100
AcDbXrecord
280
     1
102
RTVSPropertyOp0
 70
     1
102
RTVSPropertyOp1
 70
     1
102
RTVSPropertyOp2
 70
     1
102
RTVSPropertyOp3
 70
     1
102
RTVSPropertyOp4
 70
     1
102
RTVSPropertyOp5
 70
     1
102
RTVSPropertyOp6
 70
     1
102
RTVSPropertyOp7
 70
     1
102
RTVSPropertyOp8
 70
     1
102
RTVSPropertyOp9
 70
     1
102
RTVSPropertyOp10
 70
     1
102
RTVSPropertyOp11
 70
     1
102
RTVSPropertyOp12
 70
     1
102
RTVSPropertyOp13
 70
     1
102
RTVSPropertyOp14
 70
     1
102
RTVSPropertyOp15
 70
     1
102
RTVSPropertyOp16
 70
     1
102
RTVSPropertyOp17
 70
     1
102
RTVSPropertyOp18
 70
     1
102
RTVSPropertyOp19
 70
     1
102
RTVSPropertyOp20
 70
     1
102
RTVSPropertyOp21
 70
     1
102
RTVSPropertyOp22
 70
     1
102
RTVSPropertyOp23
 70
     1
102
RTVSPropertyOp24
 70
     1
102
RTVSPropertyOp25
 70
     1
102
RTVSPropertyOp26
 70
     1
102
RTVSPropertyOp27
 70
     1
102
RTVSPropertyOp28
 70
     1
102
RTVSPropertyOp29
 70
     1
102
RTVSPropertyOp30
 70
     1
102
RTVSPropertyOp31
 70
     1
102
RTVSPropertyOp32
 70
     1
102
RTVSPropertyOp33
 70
     1
102
RTVSPropertyOp34
 70
     1
102
RTVSPropertyOp35
 70
     1
102
RTVSPropertyOp36
 70
     1
102
RTVSPropertyOp37
 70
     1
102
RTVSPropertyOp38
 70
     1
102
RTVSPropertyOp39
 70
     1
102
RTVSPropertyOp40
 70
     1
102
RTVSPropertyOp41
 70
     1
102
RTVSPropertyOp42
 70
     1
102
RTVSPropertyOp43
 70
     1
102
RTVSPropertyOp44
 70
     1
102
RTVSPropertyOp45
 70
     1
102
RTVSPropertyOp46
 70
     1
102
RTVSPropertyOp47
 70
     1
102
RTVSPropertyOp48
 70
     1
102
RTVSPropertyOp49
 70
     1
102
RTVSPropertyOp50
 70
     1
102
RTVSPropertyOp51
 70
     0
102
RTVSPropertyOp52
 70
     0
102
RTVSPropertyOp53
 70
     1
102
RTVSPropertyOp54
 70
     1
102
RTVSPropertyOp55
 70
     1
102
RTVSPropertyOp56
 70
     1
102
RTVSPropertyOp57
 70
     1
102
RTVSPost2010Prop28
280
     0
102
RTVSPost2010PropOp28
 70
     1
102
RTVSPost2010Prop29
280
     1
102
RTVSPost2010PropOp29
 70
     1
102
RTVSPost2010Prop30
280
     1
102
RTVSPost2010PropOp30
 70
     1
102
RTVSPost2010Prop31
280
     0
102
RTVSPost2010PropOp31
 70
     1
102
RTVSPost2010Prop32
280
     0
102
RTVSPost2010PropOp32
 70
     1
102
RTVSPost2010Prop33
280
     0
102
RTVSPost2010PropOp33
 70
     1
102
RTVSPost2010Prop34
280
     0
102
RTVSPost2010PropOp34
 70
     1
102
RTVSPost2010Prop35
280
     0
102
RTVSPost2010PropOp35
 70
     1
102
RTVSPost2010Prop36
280
     0
102
RTVSPost2010PropOp36
 70
     1
102
RTVSPost2010Prop37
 90
       50
102
RTVSPost2010PropOp37
 70
     1
102
RTVSPost2010Prop38
140
0.0
102
RTVSPost2010PropOp38
 70
     1
102
RTVSPost2010Prop39
140
1.0
102
RTVSPost2010PropOp39
 70
     1
102
RTVSPost2010Prop40
 90
        0
102
RTVSPost2010PropOp40
 70
     1
102
RTVSPost2010Prop41ColorIndex
 90
       18
102
RTVSPost2010Prop41ColorRGB
 90
        0
102
RTVSPost2010PropOp41
 70
     1
102
RTVSPost2010Prop42
 90
       50
102
RTVSPost2010PropOp42
 70
     1
102
RTVSPost2010Prop43
 90
        3
102
RTVSPost2010PropOp43
 70
     1
102
RTVSPost2010Prop44ColorIndex
 90
        5
102
RTVSPost2010Prop44ColorRGB
 90
      255
102
RTVSPost2010PropOp44
 70
     1
102
RTVSPost2010Prop45
280
     0
102
RTVSPost2010PropOp45
 70
     1
102
RTVSPost2010Prop46
 90
       50
102
RTVSPost2010PropOp46
 70
     1
102
RTVSPost2010Prop47
 90
       50
102
RTVSPost2010PropOp47
 70
     1
102
RTVSPost2010Prop48
 90
       50
102
RTVSPost2010PropOp48
 70
     1
102
RTVSPost2010Prop49
280
     0
102
RTVSPost2010PropOp49
 70
     1
102
RTVSPost2010Prop50
 90
       50
102
RTVSPost2010PropOp50
 70
     1
102
RTVSPost2010Prop51ColorIndex
 90
      256
102
RTVSPost2010Prop51ColorRGB
 90
-16777216
102
RTVSPost2010PropOp51
 70
     0
102
RTVSPost2010Prop52
140
1.0
102
RTVSPost2010PropOp52
 70
     0
102
RTVSPost2010Prop53
 90
        2
102
RTVSPost2010PropOp53
 70
     1
102
RTVSPost2010Prop54
  1
strokes_ogs.tif
102
RTVSPost2010PropOp54
 70
     1
102
RTVSPost2010Prop55
280
     0
102
RTVSPost2010PropOp55
 70
     1
102
RTVSPost2010Prop56
140
1.0
102
RTVSPost2010PropOp56
 70
     1
102
RTVSPost2010Prop57
140
1.0
102
RTVSPost2010PropOp57
 70
     1
  0
XRECORD
  5
13E
102
{ACAD_REACTORS
330
13D
102
}
330
13D
100
AcDbXrecord
280
     1
102
RTVSPropertyOp0
 70
     1
102
RTVSPropertyOp1
 70
     1
102
RTVSPropertyOp2
 70
     1
102
RTVSPropertyOp3
 70
     1
102
RTVSPropertyOp4
 70
     1
102
RTVSPropertyOp5
 70
     1
102
RTVSPropertyOp6
 70
     1
102
RTVSPropertyOp7
 70
     1
102
RTVSPropertyOp8
 70
     1
102
RTVSPropertyOp9
 70
     1
102
RTVSPropertyOp10
 70
     1
102
RTVSPropertyOp11
 70
     1
102
RTVSPropertyOp12
 70
     1
102
RTVSPropertyOp13
 70
     1
102
RTVSPropertyOp14
 70
     1
102
RTVSPropertyOp15
 70
     1
102
RTVSPropertyOp16
 70
     1
102
RTVSPropertyOp17
 70
     1
102
RTVSPropertyOp18
 70
     1
102
RTVSPropertyOp19
 70
     1
102
RTVSPropertyOp20
 70
     1
102
RTVSPropertyOp21
 70
     1
102
RTVSPropertyOp22
 70
     1
102
RTVSPropertyOp23
 70
     1
102
RTVSPropertyOp24
 70
     1
102
RTVSPropertyOp25
 70
     1
102
RTVSPropertyOp26
 70
     1
102
RTVSPropertyOp27
 70
     1
102
RTVSPropertyOp28
 70
     1
102
RTVSPropertyOp29
 70
     1
102
RTVSPropertyOp30
 70
     1
102
RTVSPropertyOp31
 70
     1
102
RTVSPropertyOp32
 70
     1
102
RTVSPropertyOp33
 70
     1
102
RTVSPropertyOp34
 70
     1
102
RTVSPropertyOp35
 70
     1
102
RTVSPropertyOp36
 70
     1
102
RTVSPropertyOp37
 70
     1
102
RTVSPropertyOp38
 70
     1
102
RTVSPropertyOp39
 70
     1
102
RTVSPropertyOp40
 70
     1
102
RTVSPropertyOp41
 70
     1
102
RTVSPropertyOp42
 70
     1
102
RTVSPropertyOp43
 70
     1
102
RTVSPropertyOp44
 70
     1
102
RTVSPropertyOp45
 70
     1
102
RTVSPropertyOp46
 70
     1
102
RTVSPropertyOp47
 70
     1
102
RTVSPropertyOp48
 70
     1
102
RTVSPropertyOp49
 70
     1
102
RTVSPropertyOp50
 70
     1
102
RTVSPropertyOp51
 70
     0
102
RTVSPropertyOp52
 70
     0
102
RTVSPropertyOp53
 70
     1
102
RTVSPropertyOp54
 70
     1
102
RTVSPropertyOp55
 70
     1
102
RTVSPropertyOp56
 70
     1
102
RTVSPropertyOp57
 70
     1
102
RTVSPost2010Prop28
280
     0
102
RTVSPost2010PropOp28
 70
     1
102
RTVSPost2010Prop29
280
     1
102
RTVSPost2010PropOp29
 70
     1
102
RTVSPost2010Prop30
280
     1
102
RTVSPost2010PropOp30
 70
     1
102
RTVSPost2010Prop31
280
     0
102
RTVSPost2010PropOp31
 70
     1
102
RTVSPost2010Prop32
280
     0
102
RTVSPost2010PropOp32
 70
     1
102
RTVSPost2010Prop33
280
     0
102
RTVSPost2010PropOp33
 70
     1
102
RTVSPost2010Prop34
280
     0
102
RTVSPost2010PropOp34
 70
     1
102
RTVSPost2010Prop35
280
     0
102
RTVSPost2010PropOp35
 70
     1
102
RTVSPost2010Prop36
280
     0
102
RTVSPost2010PropOp36
 70
     1
102
RTVSPost2010Prop37
 90
       50
102
RTVSPost2010PropOp37
 70
     1
102
RTVSPost2010Prop38
140
0.0
102
RTVSPost2010PropOp38
 70
     1
102
RTVSPost2010Prop39
140
1.0
102
RTVSPost2010PropOp39
 70
     1
102
RTVSPost2010Prop40
 90
        0
102
RTVSPost2010PropOp40
 70
     1
102
RTVSPost2010Prop41ColorIndex
 90
       18
102
RTVSPost2010Prop41ColorRGB
 90
        0
102
RTVSPost2010PropOp41
 70
     1
102
RTVSPost2010Prop42
 90
       50
102
RTVSPost2010PropOp42
 70
     1
102
RTVSPost2010Prop43
 90
        3
102
RTVSPost2010PropOp43
 70
     1
102
RTVSPost2010Prop44ColorIndex
 90
        5
102
RTVSPost2010Prop44ColorRGB
 90
      255
102
RTVSPost2010PropOp44
 70
     1
102
RTVSPost2010Prop45
280
     0
102
RTVSPost2010PropOp45
 70
     1
102
RTVSPost2010Prop46
 90
       50
102
RTVSPost2010PropOp46
 70
     1
102
RTVSPost2010Prop47
 90
       50
102
RTVSPost2010PropOp47
 70
     1
102
RTVSPost2010Prop48
 90
       50
102
RTVSPost2010PropOp48
 70
     1
102
RTVSPost2010Prop49
280
     0
102
RTVSPost2010PropOp49
 70
     1
102
RTVSPost2010Prop50
 90
       50
102
RTVSPost2010PropOp50
 70
     1
102
RTVSPost2010Prop51ColorIndex
 90
      256
102
RTVSPost2010Prop51ColorRGB
 90
-16777216
102
RTVSPost2010PropOp51
 70
     0
102
RTVSPost2010Prop52
140
1.0
102
RTVSPost2010PropOp52
 70
     0
102
RTVSPost2010Prop53
 90
        2
102
RTVSPost2010PropOp53
 70
     1
102
RTVSPost2010Prop54
  1
strokes_ogs.tif
102
RTVSPost2010PropOp54
 70
     1
102
RTVSPost2010Prop55
280
     0
102
RTVSPost2010PropOp55
 70
     1
102
RTVSPost2010Prop56
140
1.0
102
RTVSPost2010PropOp56
 70
     1
102
RTVSPost2010Prop57
140
1.0
102
RTVSPost2010PropOp57
 70
     1
  0
XRECORD
  5
15E
102
{ACAD_REACTORS
330
15D
102
}
330
15D
100
AcDbXrecord
280
     1
102
RTVSPropertyOp0
 70
     1
102
RTVSPropertyOp1
 70
     1
102
RTVSPropertyOp2
 70
     1
102
RTVSPropertyOp3
 70
     1
102
RTVSPropertyOp4
 70
     1
102
RTVSPropertyOp5
 70
     1
102
RTVSPropertyOp6
 70
     1
102
RTVSPropertyOp7
 70
     1
102
RTVSPropertyOp8
 70
     1
102
RTVSPropertyOp9
 70
     1
102
RTVSPropertyOp10
 70
     1
102
RTVSPropertyOp11
 70
     1
102
RTVSPropertyOp12
 70
     1
102
RTVSPropertyOp13
 70
     1
102
RTVSPropertyOp14
 70
     1
102
RTVSPropertyOp15
 70
     1
102
RTVSPropertyOp16
 70
     1
102
RTVSPropertyOp17
 70
     1
102
RTVSPropertyOp18
 70
     1
102
RTVSPropertyOp19
 70
     1
102
RTVSPropertyOp20
 70
     1
102
RTVSPropertyOp21
 70
     1
102
RTVSPropertyOp22
 70
     1
102
RTVSPropertyOp23
 70
     1
102
RTVSPropertyOp24
 70
     1
102
RTVSPropertyOp25
 70
     1
102
RTVSPropertyOp26
 70
     1
102
RTVSPropertyOp27
 70
     1
102
RTVSPropertyOp28
 70
     1
102
RTVSPropertyOp29
 70
     1
102
RTVSPropertyOp30
 70
     1
102
RTVSPropertyOp31
 70
     1
102
RTVSPropertyOp32
 70
     1
102
RTVSPropertyOp33
 70
     1
102
RTVSPropertyOp34
 70
     1
102
RTVSPropertyOp35
 70
     1
102
RTVSPropertyOp36
 70
     1
102
RTVSPropertyOp37
 70
     1
102
RTVSPropertyOp38
 70
     1
102
RTVSPropertyOp39
 70
     1
102
RTVSPropertyOp40
 70
     1
102
RTVSPropertyOp41
 70
     1
102
RTVSPropertyOp42
 70
     1
102
RTVSPropertyOp43
 70
     1
102
RTVSPropertyOp44
 70
     1
102
RTVSPropertyOp45
 70
     1
102
RTVSPropertyOp46
 70
     1
102
RTVSPropertyOp47
 70
     1
102
RTVSPropertyOp48
 70
     1
102
RTVSPropertyOp49
 70
     1
102
RTVSPropertyOp50
 70
     1
102
RTVSPropertyOp51
 70
     0
102
RTVSPropertyOp52
 70
     0
102
RTVSPropertyOp53
 70
     1
102
RTVSPropertyOp54
 70
     1
102
RTVSPropertyOp55
 70
     1
102
RTVSPropertyOp56
 70
     1
102
RTVSPropertyOp57
 70
     1
102
RTVSPost2010Prop28
280
     0
102
RTVSPost2010PropOp28
 70
     1
102
RTVSPost2010Prop29
280
     1
102
RTVSPost2010PropOp29
 70
     1
102
RTVSPost2010Prop30
280
     1
102
RTVSPost2010PropOp30
 70
     1
102
RTVSPost2010Prop31
280
     0
102
RTVSPost2010PropOp31
 70
     1
102
RTVSPost2010Prop32
280
     0
102
RTVSPost2010PropOp32
 70
     1
102
RTVSPost2010Prop33
280
     0
102
RTVSPost2010PropOp33
 70
     1
102
RTVSPost2010Prop34
280
     0
102
RTVSPost2010PropOp34
 70
     1
102
RTVSPost2010Prop35
280
     0
102
RTVSPost2010PropOp35
 70
     1
102
RTVSPost2010Prop36
280
     0
102
RTVSPost2010PropOp36
 70
     1
102
RTVSPost2010Prop37
 90
       50
102
RTVSPost2010PropOp37
 70
     1
102
RTVSPost2010Prop38
140
0.0
102
RTVSPost2010PropOp38
 70
     1
102
RTVSPost2010Prop39
140
1.0
102
RTVSPost2010PropOp39
 70
     1
102
RTVSPost2010Prop40
 90
        0
102
RTVSPost2010PropOp40
 70
     1
102
RTVSPost2010Prop41ColorIndex
 90
       18
102
RTVSPost2010Prop41ColorRGB
 90
        0
102
RTVSPost2010PropOp41
 70
     1
102
RTVSPost2010Prop42
 90
       50
102
RTVSPost2010PropOp42
 70
     1
102
RTVSPost2010Prop43
 90
        3
102
RTVSPost2010PropOp43
 70
     1
102
RTVSPost2010Prop44ColorIndex
 90
        5
102
RTVSPost2010Prop44ColorRGB
 90
      255
102
RTVSPost2010PropOp44
 70
     1
102
RTVSPost2010Prop45
280
     0
102
RTVSPost2010PropOp45
 70
     1
102
RTVSPost2010Prop46
 90
       50
102
RTVSPost2010PropOp46
 70
     1
102
RTVSPost2010Prop47
 90
       50
102
RTVSPost2010PropOp47
 70
     1
102
RTVSPost2010Prop48
 90
       50
102
RTVSPost2010PropOp48
 70
     1
102
RTVSPost2010Prop49
280
     0
102
RTVSPost2010PropOp49
 70
     1
102
RTVSPost2010Prop50
 90
       50
102
RTVSPost2010PropOp50
 70
     1
102
RTVSPost2010Prop51ColorIndex
 90
      256
102
RTVSPost2010Prop51ColorRGB
 90
-16777216
102
RTVSPost2010PropOp51
 70
     0
102
RTVSPost2010Prop52
140
1.0
102
RTVSPost2010PropOp52
 70
     0
102
RTVSPost2010Prop53
 90
        2
102
RTVSPost2010PropOp53
 70
     1
102
RTVSPost2010Prop54
  1
strokes_ogs.tif
102
RTVSPost2010PropOp54
 70
     1
102
RTVSPost2010Prop55
280
     0
102
RTVSPost2010PropOp55
 70
     1
102
RTVSPost2010Prop56
140
1.0
102
RTVSPost2010PropOp56
 70
     1
102
RTVSPost2010Prop57
140
1.0
102
RTVSPost2010PropOp57
 70
     1
  0
ENDSEC
  0
EOF
